» » »

The Summer Set, Cross Your Fingers Chords (ver.2)

Artists:  A B C D E F G H I J K L M N O P Q R S T U V W X Y Z # 

Cross Your Fingers Chords (ver.2)

The Summer Set Tabs
 Rating:
4/5 (4 votes)
Cross Your Fingers lessons Tabs too difficult? Try these video lessons and learn fast
                Alright, so there are no accurate tabs for this one on here so I decided to tab it 
This is the acoustic version of The Summer Set's song "Cross Your Fingers". I tabbed it by 


Standard Tuning
Capo: They have it on the 4th fret because they're 1/2 step down. So if you're in 
put your capo on the 3rd fret.

Chords used:
E- 022100
A- 002200
B- 024400
C#- 046600
Eb- 068800
E*- 079900


BTW, I only tabbed out John's part because it's the lead guitar.


Intro:

e- 4-4-4-5-4-2-2-2-2-2-4-4-4-5-4-2-2-2-7-7-7-4-4-4-5-4-2-2-2-2-2-|
b- 5-5-5-5-5-4-4-4-4-4-5-5-5-5-5-4-4-4-9-9-9-5-5-5-5-5-4-4-4-4-4-|
g- 4-4-4-4-4-4-4-4-4-4-4-4-4-4-4-4-4-4-9-9-9-4-4-4-4-4-4-4-4-4-4-|
d- x-x-x-x-x-x-x-x-x-x-x-x-x-x-x-x-x-x-x-x-x-x-x-x-x-x-x-x-x-x-x-|
a- x-x-x-x-x-x-x-x-x-x-x-x-x-x-x-x-x-x-x-x-x-x-x-x-x-x-x-x-x-x-x-|
E- x-x-x-x-x-x-x-x-x-x-x-x-x-x-x-x-x-x-x-x-x-x-x-x-x-x-x-x-x-x-x-|

e- 4-4-4-5-4-4-5-4-4-5-4-0-------|      It's a little hard to understand but
b- 5-5-5-5-5-5-5-5-5-5-5-5-------|      watch the video to get the strumming.
g- 4-4-4-4-4-4-4-4-4-4-4-4-------|
d- x-x-x-x-x-x-x-x-x-x-x-x-------|
a- x-x-x-x-x-x-x-x-x-x-x-x-------|
E- x-x-x-x-x-x-x-x-x-x-x-x-------|


Verse:

It's just the E and A chords played alternately. Once again watch the video.
E- 022100
A- 002200

Prechorus:
"I'm gonna give, give..."
same thing except diff. strumming pattern with the E and A chords

Chorus: "Forget the nightlife..."

E            B
forget the night life

             A
oh you're my favorite thing about this town

E            B                 C#           A
so come with me, i'll take you home

           C#     B    A
and you can stay the night

       C#       Eb        E*
if you cross your fingers


Intro again

Verse:
This one's a little different.

E
you've got a heavy heart

A
i'm sure
                         E
you've got me where you want me
you're running circles in my head

B                         E*
are you restless? are you ruthless?

Prechorus: same

Chorus
            
Submit corrections

comments powered by Disqus
↑ Back to top | The Summer Set Chords for Cross Your Fingers. Lyrics for acoustic guitar and electric guitar. Tablatures and chords are parodies/interpretations of the original songs. You may use it for private study, scholarship, research or language learning purposes only