» » »

Cellophane Tabs (ver.1)

Artists:  A B C D E F G H I J K L M N O P Q R S T U V W X Y Z # 

Cellophane Tabs (ver.1)

The Sound Of Animals Fighting
Rating:
2/5 (2 votes)

Tabs too difficult? Try these video lessons and learn fast.
                (Intro)
Hey guys. I'm working on a guitar pro tab of the whole song,
but since I'm lazy and probably will never finish it,
I'm posting what I have so far.

Watch out for the time change in the middle!

- Gino
-------------------------------------------------------------

Cellophane (intro) by The Sound of Animals Fighting

Repeat the intro three times.

** 7/8 time **

     E  E  E  E  E  E  E      E  E  E  E  E  E  E      E  E  E  E  E  E  E   
D#|--------------------3s--|-(5)----------------5s--|-(7)----------------7--|
A#|--------0--------0------|--------0--------0------|--------0--------0-----|
F#|*----0--------0---------|-----0--------0---------|-----0--------0--------|
C#|*-2--------2------------|--4--------4------------|--5--------5-----------|
G#|------------------------|------------------------|-----------------------|
D#|------------------------|------------------------|-----------------------|


  E  E  E  E  E  E  E     E  E  E  E  E  E  E     E  E  E  E  E  E  E   
--------------------7--|--------------------8--|--------------------7--|
--------0--------0-----|--------0--------0-----|--------0--------0-----|
-----0--------0--------|-----5--------5--------|-----5--------5--------|
--5--------5-----------|--7--------7-----------|--7--------7-----------|
-----------------------|-----------------------|-----------------------|
-----------------------|-----------------------|-----------------------|


** 9/8 time **

  E  E  E  E  E  E  E  E  E     E  E  E  E   E  E  E  E  E   
-----------3-----------3-----|-----------2s-(5)-------5-----|
--------0-----------0-----0--|--------0------------0-----0--|
-----0-----------0-----------|-----0------------0-----------|
--2-----------2--------------|--1------------4--------------|
-----------------------------|------------------------------|
-----------------------------|------------------------------|


  E  E  E  E   E  E  E  E  E     E  E  E  E   E  E  E  E  E   
-----------3s-(5)-------5-----|-----------3s-(2)-------2-----|
--------0------------0-----0--|--------0------------0-----0--|
-----0------------0-----------|-----0------------0----------*|
--2------------4--------------|--2------------1-------------*|
------------------------------|------------------------------|
------------------------------|------------------------------|

Key:
s - slide between notes
()- don't pick these notes
E - eighth note
            
Tabs too difficult? Try these video lessons and learn fast.




comments powered by Disqus
↑ Back to top | Tablatures and chords are parodies/interpretations of the original songs. You may use it for private study, scholarship, research or language learning purposes only