>
 >
Act II: All Is Ash Or The Light Shining Through It"

Act II: All Is Ash Or The Light Shining Through It" Guitar Tabs

The Sound Of Animals Fighting - Act II: All Is Ash Or The Light Shining Through It" chords, tabs, tablatures, lyrics

Guitar lessons | Add/correct | Request | Top 50 tabs Artists:  A B C D E F G H I J K L M N O P Q R S T U V W X Y Z 0-9

Act II: All Is Ash Or The Light Shining Through It" Guitar Tabs – The Sound Of Animals Fighting

CD, Sheet music, Poster

Do you like Act II: All Is Ash Or The Light Shining Through It"? Share with your friends now
Bass TabsTabs
Played in Standard(EADGBe)
Guitar 1 = Right Speaker
Guitar 2 = Left Speaker


key:
/ = slide up
\ = slide down
h = hammer on
p = pull off
#x= number of repeats
*^ = bend-release
(*)= optional note 



INTRO

Guitar 1 and 2(figure out yourself where the palm muting goes)
(play this intro 3 times)
e|--------------------------------------|
b|----------10--------------------------|
g|-----------9-------7-7-10-10-9--------|
d|--7----7---7-----------------------7--|
a|-----------0--------------------------|
e|--------------------------------------|


e|------------------------------------------------|
b|----------10------------------------------------|
g|-----------9-------7-7-10-10-9------------------|
d|--7----7---7-----------------------10-10-12-12-9|
a|-----------0------------------------------------|
e|------------------------------------------------|


*tremelo pick this very fast*
e|--------------------------------|
b|--------------------------------|
g|-------------------------9-9-10-|
d|-----9-9-10-10-12-12------------|
a|--------------------------------|
e|--------------------------------|



Then play


Guitar 1
e|--------------------------------------|
b|----------10--------------------------|
g|-----------9-------7-7-10-10-9--------|
d|--7----7---7-----------------------7--|
a|-----------0--------------------------|
e|--------------------------------------|

e|-------------------------------------------------|
b|----------10-------------------------------------|
g|-----------9-------7-7-10-10-9-------------------|
d|-------7---7-----------------------10-10-12-12-9-|
a|-----------0-------------------------------------|
e|-------------------------------------------------|

e|------------------------|
b|------------------------|
g|------------------------|
d|--12-12-10-10-9---------|
a|--------------------14--|
e|------------------------|



Guitar 2
e|--------------------------------------|
b|----------10-------6-6-10-10-8--------|
g|-----------9-----------------------9--|
d|--7----7---7--------------------------|
a|-----------0--------------------------|
e|--------------------------------------|

e|------------------------------------------------|
b|----------10-------6-6-10-10-8------------------|
g|-----------9-----------------------9-9-12-12-9--|
d|-------7---7------------------------------------|
a|-----------0------------------------------------|
e|------------------------------------------------|

e|--------------------|
b|--------------------|
g|----9-9-7-7-5-4-----|
d|--------------------|
a|--------------------|
e|--------------------|







CLEAN PART

Guitar 2
(play this 7 times)
e|-------------------------------------5----------5-----------|
b|--------5-6----------5-5---------5----------6---------------|
g|-----7------------7------------7----------7-----------------|
d|--7------------7------------7----------7--------------------|
a|------------------------------------------------------------|
e|------------------------------------------------------------|




After Guitar 2 plays that riff 3 times, Guitar 1 comes in with

Guitar 1
(play this 8 times, distorted btw)
e|----12---10---12---10------12------------------------------|
b|----17---15---17---15------17------------------------------|
g|-----------------------------------------------------------|
d|-----------------------------------------------------------|
a|-----------------------------------------------------------|
e|-----------------------------------------------------------|






then




Guitar 1 and 2
e|--------------------------------------------------------|
b|--------------------------------------------------------|
g|---6--7---10--10-------------6--------------------------|
d|---x--x----x---x----7---7----x--------------------------|
a|---4--5----8---8----x---x----4--------------------------|
d|--------------------5---5-------------------------------|

e|-------------------------------------------------------|
b|-------------------------------------------------------|
g|---7---7-7-7-7-7-7----10-------6-----------------------|
d|---x---x-x-x-x-x-x----x----7---x-----------------------|
a|---5---5-5-5-5-5-5----8----x---4-----------------------|
e|---------------------------5---------------------------|



Harmonized part - guitar one
e|--------------------------------------------------------|
b|--------------------------------------------------------|
g|----10-9-7-9-7------------------------10--------6-6-6---|
d|-------------------9-7-9-7-------------x----7---x-x-x---|
a|-------------------------------9-7-----8----x---4-4-4---|
e|--------------------------------------------5-----------|

(I haven't figured out guitar 2's part)


(palm muted part, figure out where you take off your palm yourself)
Play this twice

Guitar 1 and 2
e|-----------------------------------------------------|
b|-----------------------------------------------------|
g|-----------------------------------------------------|
d|--7-7-7-7-7-7-7-7---7-7-7-7-7-7-7-7------------------|
a|--5-5-5-5-5-5-5-5---8-8-8-8-8-8-8-8------------------|
e|-----------------------------------------------------|


e|-----------------------------------------------------|
b|-----------------------------------------------------|
g|-----------------------------------------------------|
d|--5-5-5-5-5-5-5-5---5-5-5-5-5-5-5-5------------------|
a|--7-7-7-7-7-7-7-7---6-6-6-6-6-6-6-6------------------|
e|-----------------------------------------------------|


Then

Guitar 1
e|--------------------------------------------------------|
b|--------------------------------------------------------|
g|---6--7---10--10-------------6--------------------------|
d|---x--x----x---x----7---7----x--------------------------|
a|---4--5----8---8----x---x----4--------------------------|
d|--------------------5---5-------------------------------|

e|-------------------------------------------------------|
b|-------------------------------------------------------|
g|---7---7-7-7-7-7-7----10-------6-----------------------|
d|---x---x-x-x-x-x-x----x----7---x-----------------------|
a|---5---5-5-5-5-5-5----8----x---4-----------------------|
e|---------------------------5---------------------------|


Harmonized part again
e|-------------------------------------------------------|
b|-------------------------------------------------------|
g|----10-9-7-9-7------------------------10-------6-6-6---|
d|-------------------9-7-9-7-------------x----7--x-x-x---|
a|-------------------------------9-7-----8----x--4-4-4---|
e|--------------------------------------------5----------|


then



(play this part 3 times)
Guitar 1 and 2
e|-------------------------------------------------------|
b|----6---6-----6-6-6-------5---5------5-5-5-------------|
g|----7---7-----7-7-7-------6---6------6-6-6-------------|
d|----x---x-----x-x-x-------x---x------x-x-x-------------|
a|----5---5-----5-5-5-------4---4------5-5-5-------------|
e|-------------------------------------------------------|


then

e|-------------------------------------------------------|
b|-------------------------------------------------------|
g|-----------6---10-10--10-10-10-------------------------|
d|---3---7---x----x--x---x--x--x-------------------------|
a|---x---x---4----8--8---8--8--8-------------------------|
e|---1---5-----------------------------------------------|


(x3)
e|-------------------------------------------------------|
b|-------------------------------------------------------|
g|---7-7------10-10-10--------------6-6------------------|
d|---x-x------x--x---x------7--7----x-x------------------|
a|---5-5------8--8---8------x--x----4-4------------------|
e|--------------------------5--5-------------------------|



then


e|------------------------------------------------------|
b|------------------------------------------------------|
g|-----------6-6-6---7-7-7---8-8-8----------------------|
d|--7-7-7----x-x-x---x-x-x---x-x-x----------------------|
a|--x-x-x----4-4-4---5-5-5---6-6-6----------------------|
e|--5-5-5-----------------------------------------------|






Harmonized Solo

Guitar 1
e|-----------------------------------------------------------|
b|-----------------------------------------------------------|
g|--------------9--9--10--12--13--12--15--12--13-------------|
d|------10---------------------------------------------------|
a|--11-----11------------------------------------------------|
e|-----------------------------------------------------------|


e|-----------------------------12--15--16--15--13--12--------|
b|---------------------16-17---------------------------------|
g|---9--13--15--13-------------------------------------------|
d|-----------------------------------------------------------|
a|-----------------------------------------------------------|
e|-----------------------------------------------------------|


e|----------------------------------16-----------------------|
b|---8--9--13--9--8--9--13--15-----------15--15--18----------|
g|-----------------------------------------------------------|
d|-----------------------------------------------------------|
a|-----------------------------------------------------------|
e|-----------------------------------------------------------|


e|---------------------------------------------------------------|
b|---17--15--17--15----------------------------------------------|
g|---------------------17--16------------------------------------|
d|-------------------------------16--15--16--15--16--18----------|
a|-----------------------------------------------------------17~-|
e|---------------------------------------------------------------|


(Haven't figured out guitar 2's part)





Then the bridge

(play this part 4 times)
Guitar 1 and 2
e|-----------------------------------------------------------------|
b|---------------------------------------------/11-11-11-11-11-11--|
g|---------------------------------------------/12-12-12-12-12-12--|
d|-7777777777777---------------------------------------------------|
a|-5555555555555--7777777777777------------------------------------|
e|----------------5555555555555------------------------------------|

then after you play that part 4x, end on

e|-----|
b|-----|
g|-----|
d|--7--|
a|--7--|
e|--5--|



Then back to the clean part

Guitar 2
(play this 7 times)
e|-------------------------------------5----------5-----------|
b|--------5-6----------5-5---------5----------6---------------|
g|-----7------------7------------7----------7-----------------|
d|--7------------7------------7----------7--------------------|
a|------------------------------------------------------------|
e|------------------------------------------------------------|

After Guitar 2 plays that riff 3 times, Guitar 1 comes in with

Guitar 1
(play this 8 times)
e|----12---10---12---10------12------------------------------|
b|----17---15---17---15------17------------------------------|
g|-----------------------------------------------------------|
d|-----------------------------------------------------------|
a|-----------------------------------------------------------|
e|-----------------------------------------------------------|

Guitar 1
e|--------------------------------------------------------|
b|--------------------------------------------------------|
g|---6--7---10--10-------------6--------------------------|
d|---x--x----x---x----7---7----x--------------------------|
a|---4--5----8---8----x---x----4--------------------------|
d|--------------------5---5-------------------------------|

e|-------------------------------------------------------|
b|-------------------------------------------------------|
g|---7---7-7-7-7-7-7----10-------6-----------------------|
d|---x---x-x-x-x-x-x----x----7---x-----------------------|
a|---5---5-5-5-5-5-5----8----x---4-----------------------|
e|---------------------------5---------------------------|



Harmonized part
e|---------------------------------------------------------|
b|---------------------------------------------------------|
g|----10-9-7-9-7------------------------10---------6-6-6---|
d|-------------------9-7-9-7-------------x----7----x-x-x---|
a|-------------------------------9-7-----8----x----4-4-4---|
e|--------------------------------------------5------------|



(play this part 3 times)
Guitar 1 and 2
e|-------------------------------------------------------|
b|----6---6-----6-6-6-------5---5------5-5-5-------------|
g|----7---7-----7-7-7-------6---6------6-6-6-------------|
d|----x---x-----x-x-x-------x---x------x-x-x-------------|
a|----5---5-----5-5-5-------4---4------5-5-5-------------|
e|-------------------------------------------------------|


then
e|--------------------------------------------------------|
b|--------------------------------------------------------|
g|-----------6----10-10-10-10-10--------------------------|
d|---3---7---x----x--x---x--x--x--------------------------|
a|---x---x---4----8--8---8--8--8--------------------------|
e|---1---5------------------------------------------------|


e|-----------------------------------------------------|
b|-----------------------------------------------------|
g|---12--14--15----18-18-18-18-18----------------------|
d|---x---x---x-----x--x--x--x--x-----------------------|
a|---10--12--13----16-16-16-16-16----------------------|
e|-----------------------------------------------------|


e|-----------------------------|
b|------------20--21-----------|
g|---19--20---x---x------------|
d|----x---x---17--18-----------|
a|---17--18--------------------|
e|-----------------------------|



Then end on


e|-------------------------------------------------|
b|-------------------------------------------------|
g|--7--------14-14-14---12---10-----9-9-9----------|
d|--x---7-----x--x--x---x-----x-----x-x-x----------|
a|--5---x----12-12-12---10----8-----7-7-7----------|
e|------5------------------------------------------|



Basically the entire song for guitar 1, most for Guitar 2.
The only thing missing is guitar 2 for the harmonized parts.  
I'm still working on that, and you can expect an update soon!





Comments


Popular The Sound Of Animals Fighting tabs & chords
Horses In The Sky Bass Tabs
My Horse Must Lose Bass Tabs
Heretic Chords
Act I: Chasing Suns Tabs
Cellophane Intro 1 Tabs
On The Occasion Of Wet Snow 1 Tabs
The Heraldic Beak Of The Manufacturer's Medallion Tabs
The Heraldic Beak Of The Manufacturer's Medallion 1 Tabs
The Heraldic Beak Of The Manufacturer's Medallion 2 Tabs
Heretic Ukulele


Song lyrics



↑ Back to top | Tablatures and chords are parodies/interpretations of the original songs. You may use it for private study, scholarship, research or language learning purposes only
© 2014 AZChords.com Contact us | Privacy policy | DMCA | Add/correct tabs | Request tabs | Top 50 tabs