» » »

The Sound Of Animals Fighting, Act II: All Is Ash Or The Light Shining Through It" Bass tabs (ver.1)

Artists:  A B C D E F G H I J K L M N O P Q R S T U V W X Y Z # 

Act II: All Is Ash Or The Light Shining Through It" Bass tabs (ver.1)

The Sound Of Animals Fighting Tabs
 Rating:
4/5 (4 votes)
Act II: All Is Ash Or The Light Shining Through It Tabs too difficult? Try these video lessons and learn fast
                Just took the other bass tab and modified it to play it in first position.  I 
think it's easier to play this way, doesn't cause as much moving around.


INTRO

X3

G---------------------------|
D---------2--0--0-3-3--2----|
A---0---0-----------------0-|
E---------------------------|


G---------------------------------------------------------|
D---------2---2-2-3-3-2-----0--0-------------0--0-2-2-4---|
A---0---0-------------------------2--2-2-3-3--------------|
E---------------------------------------------------------|

X1

G-------------------------|
D---------2---0-0-3-3-2---|
A---0---0---------------0-|
E-------------------------|


G----------------------------------------------------2~---|
D---------2---0-0-3-3-2-----0--0-----0--0-----------------|
A---0---0---------------3-3-------2--------3-3-2----------|
E---------------------------------------------------------|


VERSE

nothing

Chorus

G------------------------|
D----0----3-3------------|
A--4------------0-0---4--|
E------------------------|

G----------------------------------|
D-0---0-0-0-0-0-0-0-0-----3--------|
A----------------------------0---4-|
E----------------------------------|

G----------------------------------|
D-0---0-0-0-0-0-0-0-0-----3--------|
A----------------------------0---4-|
E----------------------------------|


VERSE

X2


G--------------------------------------------------------------------|
D----000000000000000-3333333333333-222222222222222-1111111111111111--|
A--------------------------------------------------------------------|
E--------------------------------------------------------------------|


CHORUS

G------------------------|
D----0----3-3------------|
A--4------------0-0---4--|
E------------------------|

G----------------------------------|
D-0---0-0-0-0-0-0-0-0-----3--------|
A----------------------------0---4-|
E----------------------------------|

G----------------------------------|
D-0---0-0-0-0-0-0-0-0-----3--------|
A----------------------------0---4-|
E----------------------------------|

X3

G--------------------------|
D---0-0--0-0-0-------0-0-0-|
A---------------4-4--------|
E--------------------------|

G-----------------------|
D-----------3-3--3-3-3--|
A----0--4---------------|
E--1--------------------|

X3

G--------------------------|
D--0-0--3-3-3--------------|
A--------------0-0--4-4-4--|
E--------------------------|

G-----------------------------|
D----------------0-0-0--1-1-1-|
A--0-0-0--4-4-4---------------|
E-----------------------------|


SOLO

nothing

BRIDGE

G------------------------------0--0--0--0--0--0--0--0--0--0----|
D--000000000000------------------------------------------------|
A----------------000000000000----------------------------------|
E--------------------------------------------------------------|

G-2~
D-2~
A-0~
E---


Work around those notes and change when appropriate

CHORUS

G------------------------|
D----0----3-3------------|
A--4------------0-0---4--|
E------------------------|

G----------------------------------|
D-0---0-0-0-0-0-0-0-0-----3--------|
A----------------------------0---4-|
E----------------------------------|

G----------------------------------|
D-0---0-0-0-0-0-0-0-0-----3--------|
A-5--------------------------0---4-|
E----------------------------------|

X3

G--------------------------|
D---0-0--0-0-0-------0-0-0-|
A---------------4-4--------|
E--------------------------|

G-----------------------|
D-----------3-3--3-3-3--|
A----0--4---------------|
E--1--------------------|

new bit (frantic)

G---0---2---3----6--6--6--6--6---|
D--------------------------------|
A--------------------------------|
E--------------------------------|

G-------------------|
D------------17-18--|
A------17-18--------|
E-------------------|

ENDING

G--------2--2--2----0------------|
D--0--------------------3--2-2-2-|
A-----0--------------------------|
E--------------------------------|

Thanks
            
Submit corrections

comments powered by Disqus
↑ Back to top | The Sound Of Animals Fighting Bass for Act II: All Is Ash Or The Light Shining Through It". Lyrics for acoustic guitar and electric guitar. Tablatures and chords are parodies/interpretations of the original songs. You may use it for private study, scholarship, research or language learning purposes only