>
 >
Such Great Heights

Such Great Heights Guitar Tabs

The Scene Aesthetic - Such Great Heights chords, tabs, tablatures, lyrics

Guitar lessons | Add/correct | Request | Top 50 tabs Artists:  A B C D E F G H I J K L M N O P Q R S T U V W X Y Z 0-9

Such Great Heights Guitar Tabs – The Scene Aesthetic

CD, Sheet music, Poster

Do you like Such Great Heights? Share with your friends now
Tabs
First tab ever. Don`t Hate.

Capo on 2, everything is relative to capo


(Intro)
e|----------------------------------------------------------------|
B|-------1---------------1--------------3-------------3-----------|
G|--0-----0-----0----0-----0----0----0----0----0---0----0---0-----|
D|----2-----0h2--------2------2--------0-------------0----0-------|
A|-3---------------3------------------------0h2-------------------|
E|---------------------------------3-------------3----------------|


e|------------1----------0--------x---|
B|------1------1--1------1--------3---|
G|--2-----2-----2---2----0-----0--0---|
D|----3-----3---------3--2--0h2---0---|
A|-0---------------------3--------2---|
E|-----------------------x--------3---|


e|---------------------------------------------------------------|
B|-------1---------------1--------------3-------------3----------|
G|--0-----0-----0----0-----0----0----0----0----0---0----0---0----|
D|----2-----0h2--------2------2--------0-------------0----0------|
A|-3---------------3------------------------0h2------------------|
E|---------------------------------3-------------3---------------|


e|------------1-------------------------------------|
B|------1------1--1-----------1-----------3---------|
G|--2-----2-----2---2---2---0---0--0---0----0---0---|
D|----3-----3---------3------2----2------0----0-----|
A|-0---------------------3--------------------------|
E|------------------------------------3-------------|




e|----------------------------------------------------------------|
B|-------1---------------1--------------3-------------3-----------|
G|--0-----0-----0----0-----0----0----0----0----0---0----0---0-----|
D|----2-----0h2--------2------2--------0-------------0----0-------|
A|-3---------------3------------------------0h2-------------------|
E|---------------------------------3-------------3----------------|


e|------------1----------0--------x---|
B|------1------1--1------1--------3---|
G|--2-----2-----2---2----0-----0--0---|
D|----3-----3---------3--2--0h2---0---|
A|-0---------------------3--------2---|
E|-----------------------x--------3---|


(Verse and Chorus)You can figure out the strumming by playing with the song
e|-0--------------x-------------0-------------1---------x---------|
B|-1--------------3-------------1-------------1---------3---------|
G|-0-(strum)------0-(strum)-----2-(strum)-----0-(strum)-0-(strum)-|
D|-2--------------0-------------3-------------2---------0---------|
A|-3--------------2-------------0-------------3---------2---------|
E|-x--------------3-------------x-------------x---------3---------|


And thats pretty much the whole song just repeat some stuff, it`s a pretty easy 
song to figure out.





Comments


Popular The Scene Aesthetic tabs & chords
Beauty In The Breakdown 1 Chords
Come What May 2 Chords
Heavy Lies The Crown Tabs
Humans Intro Tabs
Red Rover Tabs
The Man I Am 1 Tabs
To The Steadfast Intro Tabs
Beauty In The Breakdown Ukulele
Never Gonna Let This Go Ukulele
Walk This Town Ukulele


Song lyrics



↑ Back to top | Tablatures and chords are parodies/interpretations of the original songs. You may use it for private study, scholarship, research or language learning purposes only
© 2014 AZChords.com Contact us | Privacy policy | DMCA | Add/correct tabs | Request tabs | Top 50 tabs