>
 >
Someone New

Someone New Guitar Tabs

The Scene Aesthetic - Someone New chords, tabs, tablatures, lyrics

Guitar lessons | Add/correct | Request | Top 50 tabs Artists:  A B C D E F G H I J K L M N O P Q R S T U V W X Y Z 0-9

Someone New Guitar Tabs – The Scene Aesthetic

CD, Sheet music, Poster

Do you like Someone New? Share with your friends now
Tabs
This song is actually by Andrew de Torres...but i felt like including it with all the 
Scene Aesthetic tabs because everybody knows him from that band...anyways...i couldn't 
a tab for this song...so i decided to make one :P
i think this is pretty accurate. tell me what you think. Lyrics are at the bottom


Capo 2nd

Intro

e|-------------------------------------|
b|----0----0--------------0---1--1---3-|
g|---0-0--0-0--0---------0-0-0--0-0-2-2| X2
d|---0----0---2-2-2------2---0--2---0--|
a|------------2---2-0-2-3---2--0---0---|
E|--3----2---0---0---------------------|

Verse 1
e|-------------------------------------|
b|----0----0--------------0---1--1---3-|
g|---0-0--0-0--0---------0-0-0--0-0-2-2| X2
d|---0----0---2-2-2------2---0--2---0--|
a|------------2---2-0-2-3---2--0---0---|
E|--3----2---0---0---------------------|

Chorus
e|---------------------------------------2-|
b|----1----3---0-0--3-3---2-2--------1---3-|
g|---0-0--2-2--2--2-0--0--0--0------0-0--2-|
d|---2----0---1----2-----2----------2---0--|
a|--3----0---------------------0-2-3-------|
E|-----------------------------------------|

Post-Chorus
(strumming not shown)
e|--------------------------2-|
b|-0--0--0---------1--1--1--3-|
g|-0--0--0---------0--0--0--2-|
d|-0--0--2---------2--0--2--0-|
a|-0--0--2--0-2-3--3--2--0----|
E|-3--2--0--------------------|

Verse 2
(strumming not shown)
e|--------------------------2-|
b|-0--0--0---------1--1--1--3-|
g|-0--0--0---------0--0--0--2-| X2
d|-0--0--2---------2--0--2--0-|
a|-0--0--2--0-2-3--3--2--0----|
E|-3--2--0--------------------|

Chorus
e|---------------------------------------2-|
b|----1----3---0-0--3-3---2-2--------1---3-|
g|---0-0--2-2--2--2-0--0--0--0------0-0--2-|
d|---2----0---1----2-----2----------2---0--|
a|--3----0---------------------0-2-3-------|
E|-----------------------------------------|

Post Chorus
(strumming not shown)
e|--0------------0------0--2--0-----|
b|--0h1p0--------0h1p0--0--3--0h1p0-|
g|--0------------0------0--2--0-----|
d|--0------------2------2--0--0-----|
a|--0------------2------3-----0-----|
E|--3-----3-2-0---------------3-----|

Bridge
e|-------------------2--------------------------|
b|----------1--1--1--3-------------0---1--1---3-|
g|----------0--0--0--2------------0-0-0--0-0-2-2|
d|-------2--2--0--2-----------2---2---0--2---0--|
a|-------2--3--2--0-----------2--3---2--0---0---|
E|-3--2-----------------3--2--------------------|

Chorus
e|---------------------------------------2----------------------------|
b|----1----3---0-0--3-3---2-2--------1---3-------------------1---3-3--|
g|---0-0--2-2--2--2-0--0--0--0------0-0--2----0----0--------0-0--2--2-|
d|---2----0---1----2-----2----------2---0----2-2--2---------2---0-----|
a|--3----0---------------------0-2-3---------2----2--0-2-3-3----------|
E|------------------------------------------0----0--------------------|

Outro
e|--------------------------2--0|
b|-0--0--0---------1--1--1--3--1|
g|-0--0--0---------0--0--0--2--0|
d|-0--0--2---------2--0--2--0--2|
a|-0--0--2--0-2-3--3--2--0-----3|
E|-3--2--0----------------------|

Verse 1
I still remember the second that you caught my eye,
okay maybe I don't really,
and I know you're not surprised,
but I could tell from the beginning,
it was meant to be,
and it may not seem quite perfect,
but it seemed so right to me.

Chorus
and I don't want to push you into anything
'cause I want the best for you,
I just can't stand the thought of you
with Someone New,

Verse 2
you've got a smile that could light up a whole room,
and when I see it I just can't seem to get my eyes off you,
'cause you complete me in so many ways,
I wish I could explain,
I guess I'd say you're like the sun that breaks through all my rainy days,

Chorus
and I don't want to push you into anything,
'cause I want the best for you,
I just can't stand the thought of you
with Someone New,

Bridge
we've both been through so many things the last few years,
and I'd like to thank you for coming in time to save me dear,
and even if things don't work out the way we planned,
I'm still so glad that I heard you sing that one song kid rock sang,

Chorus
and I don't want to push you into anything,
'cause I want the best for you,
I just can't stand the thought of you with Someone New, just can'st stand the thought of 
with someone new.





Comments


Popular The Scene Aesthetic tabs & chords
Beauty In The Breakdown 1 Tabs
Dear Time Traveller Tabs
Heavy Lies The Crown 1 Tabs
Humans Intro Tabs
Love Story Tabs
So Peter, You've Become A Pirate Tabs
Talk About Love Tabs
Alamo Is No Place For Dancing Ukulele
Come What May Ukulele
Talk About Love Ukulele


Song lyrics



↑ Back to top | Tablatures and chords are parodies/interpretations of the original songs. You may use it for private study, scholarship, research or language learning purposes only
© 2014 AZChords.com Contact us | Privacy policy | DMCA | Add/correct tabs | Request tabs | Top 50 tabs