» » »

Landons Summer Diary Tabs (ver.1)

Artists:  A B C D E F G H I J K L M N O P Q R S T U V W X Y Z # 

Landons Summer Diary Tabs (ver.1)

The Scene Aesthetic
Rating:
0/5 (0 votes)

Hard to play? Try these video lessons and learn fast.
                -------------------------------------------
Landon's Summer Diary - The Scene Aesthetic
-------------------------------------------


Notes: I'm surprised no one has tabbed this one out. It's pretty easy to learn by ear 
and a really good song. It's not 100% correct, and you have to find out the strumming 
rhythm  for yourself. Hope you enjoy learning and playing it! I know I did.

Tuning: Half Step Down

Intro:
e|-----------------|
B|-----------------|
G|1--1-1-1h2-1-1-2-|
D|2--2-2-2---2-4-2-| X 2
A|2--2-2-2---2-2---|
E|-----------------|

I have friends that I haven't seen since I can't remember when, that I hold dear to me

e|-----------------|-----------------|-----------------|-----------------|
B|-----------------|-----------------|-----------------|-----------------|
G|1--1-1-1h2-1-1-2-|-----------------|1--1-1-1h2-1-1-2-|-----------------|
D|2--2-2-2---2-4-2-|-----------------|2--2-2-2---2-4-2-|-----------------|
A|2--2-2-2---2-2---|-----------------|2--2-2-2---2-2---|-----------------|
E|-----------------|-----------------|-----------------|-----------------|

And I wish that I could spend a lot more time with them

e|----------------------------------------|
B|---------------------------------------2|
G|----6----------------4-----------------2|
D|----6----------------4------------------|
A|----4----------------2------------------|
E|----------------------------------------|


But I wont pretend that will happen

e|-----------------|
B|-----------------|
G|1--1-1-1h2-1-1-2-|
D|2--2-2-2---2-4-2-|
A|2--2-2-2---2-2---|
E|-----------------|

Repeat again for:

I've got family, that I try and call at least once or twice a week
That mean the world to me
And I hope I get some time with them eventually
But I guess we'll wait and see

Chorus:

Cause I've been falling apart,Always wishing I was there

e|------------|------------|
B|------------|------------|
G|-2----------|-1----------|
D|-2----------|-2----------|
A|------------|-2----------|
E|------------|------------|

Holding you in my heart, And I can't seem to

e|------------|------------|
B|------------|------------|
G|-4----------|-6----------|
D|-4----------|-6----------|
A|-2----------|-4----------|
E|-2----------|-4----------|

let go of the things that mean the most to me

e|------------|------------|------------|
B|------------|------------|------------|
G|-2----------|-1----------|-4----------|
D|-2----------|-2----------|-4----------|
A|------------|-2----------|-2----------|
E|------------|------------|-2----------|

Repeat for:


And now I've spent so much time , doing things I never cared
And I know that you're proud, but I cant seem to let go
Of the things that mean the most to me

You mean the most to me

e|-----------------|
B|-----------------|
G|1--1-1-1h2-1-1-2-|
D|2--2-2-2---2-4-2-| X 2
A|2--2-2-2---2-2---|
E|-----------------|

Repeat whole thing

Constantly reminded of the life that I am missing

e|-----------------|-----------------|
B|-2---------------|-----------------|
G|-2---------------|-1---------------|
D|-----------------|-2---------------|
A|-----------------|-2---------------|
E|-----------------|-----------------|

And I can't thank you enough for holding onto me

e|-----------------|
B|-2---------------|
G|-2---------------|
D|-----------------| X 2
A|-----------------|
E|-----------------|

Chorus

Whether you're a best friend or a lover, a father or a brother

e|-----------------|-----------------|
B|-2---------------|-----------------|
G|-2---------------|-1---------------|
D|-2---------------|-2---------------|
A|-----------------|-2---------------|
E|-----------------|-----------------|

Our love for one another , will guide this heart back home

e|-----------------|-----------------|
B|-0---------------|-----------------|
G|-2---------------|-4---------------|
D|-2---------------|-4---------------|
A|-----------------|-2---------------|
E|-----------------|-----------------|

Chorus

THE END!


************************************

/   slide up
\   slide down
| h   hammer-on
| p   pull-off
| ~   vibrato
| +   harmonic
| x   Mute note
| b   Bend
| pb  Pre-bend
| br  Bend release
| pbr Pre-bend release
| brb Bend release bend

************************************
            
Hard to play? Try these video lessons and learn fast. | Correct




comments powered by Disqus
↑ Back to top | Tablatures and chords are parodies/interpretations of the original songs. You may use it for private study, scholarship, research or language learning purposes only