» » »

The Scene Aesthetic, If You're A Bird Tabs (ver.1)

Artists:  A B C D E F G H I J K L M N O P Q R S T U V W X Y Z # 

If You're A Bird Tabs (ver.1)

The Scene Aesthetic Tabs
 Rating:
4/5 (4 votes)
If You're A Bird lessons Tabs too difficult? Try these video lessons and learn fast
1
                this could be useful for you and i hope you like this. Here it is.

Intro + Verses
e|---------------------------------------------------------------------------|
B|-----1-------------1------------1-------------1----------------------------|
G|-------0---0---------0---0--------0---0---------0---0----------------------|
D|---2-----2---0h2-------2------2-----2---0h2-------2------------------------|
A|-3---------------3----------3---------------3------------------------------|
E|---------------------------------------------------------------------------|

e|---------------------------------------------------------------------------|
B|-----1-------------1------------1-------------1----------------------------|
G|-------0---0---------0---0--------0---0---------0---0----------------------|
D|---2-----2---0h2-------2------2-----2---0h2-------2------------------------|
A|-3---------------3----------3---------------3------------------------------|
E|---------------------------------------------------------------------------|


e|---------------------------------------------------------------------------|
B|-----1-------------1------------1-------------1----------------------------|
G|-------2---2---------2---2--------2---2---------2---2----------------------|
D|---2-----2---0h2-------2------2-----2---0h2-------2------------------------|
A|-0---------------0----------0---------------0------------------------------|
E|---------------------------------------------------------------------------|

e|-------------------------------1-------------------------------------------|
B|-----1-------------1-----------1-------------------------------------------|
G|-------0---0---------0---0-----2-------------------------------------------|
D|---2-----2---0h2-------2-------3-------------------------------------------|
A|-3---------------3-------------3-------------------------------------------|
E|-------------------------------1-------------------------------------------|

Play this two times.


And then the rest of the song, here is the chords for this:

             Am  F  C
I don't wanna know.
             Am  F  C
I don't wanna know.
            Dm                           Am                             F            C
They said if I think with my heart that I won't get very far; that can't possibly be true.
             Am                    F        Fm     C
I don't wanna know what life would be like without you.


C     
If you're a bird, then I'm a bird. We'll fly around we'll cut the teather.
Am
Dead and knowing all we need, we'll find what we've built together.
C                                   F                           C
I'm convinced that I have found the other half of myself within you.

  
             Am  F  C
I don't wanna know.
             Am  F  C
I don't wanna know.
            Dm                           Am                             F            C
They said if I think with my heart that I won't get very far; that can't possibly be true.
             Am                    F        Fm     C
I don't wanna know what life would be like without you.


             Dm                       Am
I will never lie to you. I will never want to
  C                   G                  Am
my heart is yours and there's nothing to hide.
                      Dm                   Am
I guess you can say I love you, I truly do adore you.
  C                    G                Am 
I've been hooked since the first day you caught my eye.
     C                 G                F  Am
And I promise you I'll never leave your side.


             Am  F  C
I don't wanna know.
             Am  F  C
I don't wanna know.
            Dm                           Am                             F            C
They said if I think with my heart that I won't get very far; that can't possibly be true.
             Am                    F        Fm     C
I don't wanna know what life would be like without you.
             Am                    F        Fm     C
I don't wanna know what life would be like without you.


And that's it.. I hope you enjoy playing this beautiful song.
            
Submit corrections

comments powered by Disqus
↑ Back to top | The Scene Aesthetic Tabs for If You're A Bird. Lyrics for acoustic guitar and electric guitar. 1 Tablatures and chords are parodies/interpretations of the original songs. You may use it for private study, scholarship, research or language learning purposes only