» » »

The Scene Aesthetic, Boats And Birds Tabs (ver.1)

Artists:  A B C D E F G H I J K L M N O P Q R S T U V W X Y Z # 

Boats And Birds Tabs (ver.1)

The Scene Aesthetic Tabs
 Rating:
4.5/5 (8 votes)
Boats And Birds lessons Tabs too difficult? Try these video lessons and learn fast
                Tuning: Standard

capo fret: 8

(frets reletive to capo)

Intro and verse
e|---------------------------------------------------|
B|-------3-----------3-----------3-----------3-------|
G|---------------------------------------------------|
D|----------0-----------0-----------0-----------0----| x5
A|----2-----------2----------------------------------|
E|----------------------------3-----------3----------|


Pre-chorus
e|---------------------------------------------------|
B|-------3-----------3-----------3-----------3-------|
G|---------------------------------------------------|
D|----------0-----------0-----------0-----------0----| x2
A|----2-----------0----------------------------------|
E|----------------------------3-----------3----------|


Chorus
e|---------------------------------------------------|
B|---------------------------------------------------|
G|-------2-----------2-----------2----------2--------|
D|----------0-----------0-----------0----------0-----| x3
A|----2-----------0----------------------------------|
E|----------------------------3----------3-----------|



e|------------------------------------------------------------------------|
B|------------------------------------------------------------------------|
G|-------2-----------2-----------2----------2-----------2-----------2-----|
D|----------0-----------0-----------0----------0-----------0-----------0--| 
A|----2-----------0-------------------------------------------------------|
E|----------------------------3----------3-----------3-----------3--------|


repeat verse
repeat pre-chorus


Bridge
e|-----------------------------------------------|
B|-------2-----------0---------------------------|
G|-----------------------------------2--2--------|
D|----------0-----------0---------0-------0------| x4
A|----0-------------------------------------0----|
E|----------------3----------1/2-----------------|


repeat verse
repeat pre-chorus
repeat chorus

Outro
e|-----------------------------|
B|-------3-----------3---------|
G|-----------------------------|
D|----------0-----------0------|
A|----2-----------2---------2--|
E|-----------------------------|

That's it.
            
Submit corrections

comments powered by Disqus
↑ Back to top | The Scene Aesthetic Tabs for Boats And Birds. Lyrics for acoustic guitar and electric guitar. Tablatures and chords are parodies/interpretations of the original songs. You may use it for private study, scholarship, research or language learning purposes only