» » »

The Rakes, Time To Stop Talking Bass tabs (ver.1)

Artists:  A B C D E F G H I J K L M N O P Q R S T U V W X Y Z # 

Time To Stop Talking Bass tabs (ver.1)

The Rakes Tabs
 Rating:
4/5 (4 votes)
Time To Stop Talking lessons Tabs too difficult? Try these video lessons and learn fast
1
                Bass tab for Time to Stop Talking :)
I'm not entirely sure about the end of the chorus, and the interlude, but the rest 
should be accurate though.
Enjoy! ^_^

Verse:
G|-------------------------------------------------------------------|
D|-------------------------------------------------------------------|
A|--3-3-3-3-3-3-3-3-----------------5-5-5-5-5-5-5-5-5-5-5-5-5-5-5-5--|
E|-----------------3-3-3-3-3-3-3-3-----------------------------------|

Chorus:
G|--------------------------------------------------|
D|--------------------------------------------------|
A|--3-3-3-3-3-3-3-3---------------------------------|
E|------------------3-3-3-3-3-3-3-3-5-5-5-5-5-5-5-5-|

G|--------------------------------------------------|
D|--------------------------------------------------|
A|--3-3-3-3-3-3-3-3-2-2-2-2-2-2-2-2-1-1-1-1-1-1-1-1-|
E|--------------------------------------------------|

G|----------------------------------|
D|----------------------------------|
A|-3-3-3-3-3-3-3-3-3-3-3-3-3-3-3-3--|
E|----------------------------------|

Interlude:
G|----------------------------|
D|----------------------------|
A|-(32 x 3)----------(32 x 3)-|
E|----------(32 x 5)----------|
Solo:
G|----------------------------------------------------------------|
D|----------------------------------------------------------------|
A|-3--3-1-3--3-1-3-----------------5--5-3-5--5-3-5--5-3-5--5-3-5--|
E|-----------------3--3-1-3--3-1-3--------------------------------|

Order:
Verse     x6
Chorus    x1
Verse     x6
Chorus    x1
Interlude x1
Solo      x4
Verse     x6
Chorus    x1
            
Submit corrections

comments powered by Disqus
↑ Back to top | The Rakes Bass for Time To Stop Talking. Lyrics for acoustic guitar and electric guitar. 1 Tablatures and chords are parodies/interpretations of the original songs. You may use it for private study, scholarship, research or language learning purposes only