>
 >
Time To Stop Talking

Time To Stop Talking Guitar Tabs

The Rakes - Time To Stop Talking chords, tabs, tablatures, lyrics

Guitar lessons | Add/correct | Request | Top 50 tabs Artists:  A B C D E F G H I J K L M N O P Q R S T U V W X Y Z 0-9

Time To Stop Talking Guitar Tabs – The Rakes

CD, Sheet music, Poster

Do you like Time To Stop Talking? Share with your friends now
Bass TabsTabs
Riff A
e|-----------------------------------------------------------------------|
B|--------13--------13--------13--------13--------13--------13--------13-|
G|-----------------------------------------------------------------------|
D|--10-10-----10-10------------------------------------------------------|
A|----------------------10-10-----10-10-----12-12-----12-12-----12-12----|
E|-----------------------------------------------------------------------|

Riff B
e|------------------------------------------------------------------|
B|----13-13-----13----13-13-----13-----13-13-----13----13-13-----13-|
G|------------------------------------------------------------------|
D|-10--------10-----------------------------------------------------|
A|-----------------10--------10-----12--------12----12--------12----|
E|------------------------------------------------------------------|

Riff C
e|-----------------------------------------------------------------|
B|-----------------------------------------------------------------|
G|-5-5-5-5-5-5-5-5-------------------------------------------------|
D|-5-5-5-5-5-5-5-5-5-5-5-5-5-5-5-5-7-7-7-7-7-7-7-7-5-5-5-5-5-5-5-5-|
A|-3-3-3-3-3-3-3-3-5-5-5-5-5-5-5-5-7-7-7-7-7-7-7-7-5-5-5-5-5-5-5-5-|
E|-----------------3-3-3-3-3-3-3-3-5-5-5-5-5-5-5-5-3-3-3-3-3-3-3-3-|

Riff D
e|-------------------------------------------------|
B|-------------------------------------------------|
G|-5-5-5-5-5-5-5-5-4-4-4-4-4-4-4-4-3-3-3-3-3-3-3-3-|
D|-5-5-5-5-5-5-5-5-4-4-4-4-4-4-4-4-3-3-3-3-3-3-3-3-|
A|-3-3-3-3-3-3-3-3-2-2-2-2-2-2-2-2-1-1-1-1-1-1-1-1-|
E|-------------------------------------------------|

Riff E

e|--------------------------------------------------------------------------|
B|--------------------------------------------------------------------------|
G|--------------------------------------------------------------------------|
D|-8-8-7-7-----------8-8-7-7-----------8-8-7-7------------------------------|
A|---------8-8---------------8-8---------------8-8-------8-8-------8-8-10-10|
E|-------------10-10-------------10-10-------------10-10-----10-10----------|

e|---------------------------------|
B|---------------------------------|
G|---------------------------------|
D|---------------------------------|
A|-8-8-8-8-8-8-8-8-8-8-8-8-8-8-8-8-|
E|---------------------------------|

Solo
e|--------------------------------------------------------------------------|
B|--------------------------------------------------------------------------|
G|--------------------------------------------------------------------------|
D|-10-10-10-10-10--------8-8-7-7--------------------------------------------|
A|----------------7-8-10---------10-10-8-8-8-7------------------------------|
E|---------------------------------------------10--10-8-10--10-8-10--10-8-10|

e|--------------------------------------------------------------------------|
B|--------------------------------------------------------------------------|
G|--------------------------------------------------------------------------|
D|---------10-10-10-10-10--------8-8-7-7------------------------------------|
A|------------------------7-8-10---------10-10-8-8-8-7----------------------|
E|-10-8-10---------------------------------------------10--10-8-10--10-8-10-|

e|--------------------------------------------------------------------|
B|--------------------------------------------------------------------|
G|--------------------------------------------------------------------|
D|------------------------------10----10--10-8-8-7--------------------|
A|-8-7-8-10-7-8-10-7-8-10-10-10----10--------------10--8--7--7--7-7-7-|
E|--------------------------------------------------------------------|

e|----------------------------------------------------------|
B|----------------------------------------------------------|
G|----------------------------------------------------------|
D|---------------------7-7-7-8--8-10--10-10-10-10-10-10--8~-|
A|-8-8-8-8-10-10-10-10--------------------------------------|
E|----------------------------------------------------------|

A x 2
B x 6
C x 1
D x 1
break
A x 2
B x 4
C x 1
D x 1
break
E x 2
Solo
C x 1
D x 1
break
E x 1





Comments


Popular The Rakes tabs & chords
Auslandmission Bass Tabs
Strasbourg 1 Bass Tabs
Work, Work Work (Pub, Club, Sleep) Bass Tabs
Little Superstitions Chords
22 Grand Job 1 Tabs
Binary Love Tabs
Strasbourg Tabs
Terror Tabs
Little Superstitions Ukulele
We Danced Together Ukulele


Song lyrics



↑ Back to top | Tablatures and chords are parodies/interpretations of the original songs. You may use it for private study, scholarship, research or language learning purposes only
© 2014 AZChords.com Contact us | Privacy policy | DMCA | Add/correct tabs | Request tabs | Top 50 tabs