» » »

The Pigeon Detectives, You Don't Need It Tabs (ver.1)

Artists:  A B C D E F G H I J K L M N O P Q R S T U V W X Y Z # 

You Don't Need It Tabs (ver.1)

The Pigeon Detectives Tabs
 Rating:
4/5 (4 votes)
You Don't Need It lessons Tabs too difficult? Try these video lessons and learn fast
1
                B: 7 9 9 8 7 7
G#m: 4 6 6 4 4 4 
F#: 2 4 4 3 2 2
E: 0 2 2 1 0 0 

Main riff:
e|4---7--------7---4---7-------7--------6---4---------------------------|
B|---------7-------------7---7---x2-------------7---4----------------x2-|
G|--------------------------------------------------------------6-4-----|
D|----------------------------------------------------------------------|
A|----------------------------------------------------------------------|
E|----------------------------------------------------------------------|

Intro: 
Play first part of Main riff four times


Verse 1:
I will give you my heart
B
Keep us falling apart
              G#m
But you don't need it
         B
If you'd just call my name

It would drive me insane
              G#m
But you don't need it


Prechorus:
               F#              E
And things are moving much too fast


Chorus:
    G#m     F#       E
You have me come and go
           G#m        F#      E
And I just don't know where I stand
    G#m       F#     E
How could you think about me
            G#m    F#    E
When you're with another man
             B
Oh you don't need it




Verse 2:
B
I stayed up half the night
B
Still I just couldn't write
            G#m
And I don't need it
      B
All I wanted was sleep
B
But I knew that that could keep
            G#m
And I don't need it


Prechorus:
           F#              E
Things are moving much too slow


Chorus:
    G#m     F#       E
You have me come and go
           G#m        F#      E
And I just don't know where I stand
    G#m       F#     E
How could you think about me
            G#m    F#    E
When you're with another man
             B
Oh you don't need it


Solo:
Over verse chords

e|---------------------------------------------------------------------|
B|0---0---2---2---4---4---5---5--x2--7---5-4-5---4--x3--2---0-------0--|
G|--------------------------------------------------------------1------|
D|---------------------------------------------------------------------|
A|---------------------------------------------------------------------|
E|---------------------------------------------------------------------|
Whole thing x2


Prechorus:
           F#              E
Things are moving much too slow



Chorus:
               G#m     F#       E
Still you will have me come and go
           G#m        F#      E
And I just don't know where I stand
    G#m       F#     E
How could you think about me
            G#m    F#    E
When you're with another man
             B
Oh you don't need it


Verse 3 Lead Guitar:
I'm pretty sure about this bit...
e|7---------------7----------------4---------------7--4----------------------|
B|7---------------7h9-7---7--------4--------------------4--------------------|
G|8---------------8-------8h9-8----4-----------------------------------------|
D|9--------------------------------6-----------------------------------------|
A|---------------------------------------------------------------------------|
E|---------------------------------------------------------------------------|

e|7----------------------7---------6-4---7-----------------------------------|
B|7------------------7-------7-----4-----------------------------------------|
G|8----------------8-----------8---4-----------------------------------------|
D|9--------------------------------6-----------------------------------------|
A|---------------------------------------------------------------------------|
E|---------------------------------------------------------------------------|

e|7----------------12-11---7----7---------------------------------------------|
B|7---------------------------9----12--11--10-12--11--10-12--11--10-12--11--10|
G|8---------------------------------------------------------------------------|
D|9---------------------------------------------------------------------------|
A|----------------------------------------------------------------------------|
E|----------------------------------------------------------------------------|
Then Prechorus...
e|----------------------------------6-------7-------9-------7----------------|
B|7-------------------------------------9-------9-------9-------9------------|
G|---------------------------------------------------------------------------|
D|---------------------------------------------------------------------------|
A|---------------------------------------------------------------------------|
E|---------------------------------------------------------------------------|

Verse 3:
B
I will close down my heart
B
If we're falling apart
                G#m
Cause you don't need it
        B
I won't give you a call
B
Won't do anything at all
                G#m
Cause you don't need it


Prechorus:
               F#             E
And things are moving nowhere now


Chorus:
               G#m     F#       E
Still you will have me come and go
           G#m        F#      E
And I just don't know where I stand
    G#m       F#     E
How could you think about me
            G#m    F#    E
When you're with another man
    G#m     F#       E
You have me come and go
           G#m        F#      E
And I just don't know where I stand
    G#m       F#     E
How could you think about me
            G#m    F#    E
When you're with another man
             B
Oh you don't need it
            
Submit corrections

comments powered by Disqus
↑ Back to top | The Pigeon Detectives Tabs for You Don't Need It. Lyrics for acoustic guitar and electric guitar. 1 Tablatures and chords are parodies/interpretations of the original songs. You may use it for private study, scholarship, research or language learning purposes only