» » »

The Pigeon Detectives, You Better Not Look My Way Tabs (ver.1)

Artists:  A B C D E F G H I J K L M N O P Q R S T U V W X Y Z # 

You Better Not Look My Way Tabs (ver.1)

The Pigeon Detectives Tabs
Rating:
0/5 (0 votes)
You Better Not Look My Way lessons Tabs too difficult? Try these video lessons and learn fast
                The Pigeon Detectives - You Better Not Look My Way
Great New Band

Intro
e|--------------|
b|----------77--|
g|-66-77-99-----| x4
d|--------------|
a|--------------|
e|--------------|

Verse x2
e|-----------------------------| |--------------|
b|-----------------------------| |--------------|
g|-6-6-6--66-6-6---6~~~--9b----| |-99-77-66-77--|  x4
d|-7-7-7--77-7-7---7~~~--------| |--------------|
a|-----------------------------| |--------------|
e|-----------------------------| |--------------|

Bridge
e|------------------------------------------------------------|
b|------------------------------------------------------------|
g|-99999999-1111111111111111-13131313131313131313131313131313-|
d|------------------------------------------------------------|
a|------------------------------------------------------------|
e|------------------------------------------------------------|

Chorus
e|-------------------------     -----------------------------------|
b|-------------------------     -----------------------------------|
g|-77-77-77-77-66-66-66-66-  x2 -77777777777777776666666666666666--|  x2
d|-77-77-77-77-77-77-66-66-     -77777777777777777777777766666666--|
a|-------------------------     -----------------------------------|
e|-------------------------     -----------------------------------|

After Chorus

guitar1
e|-------------    -------------------|
b|----------77-    -------------------|
g|-66-77-99---- x5 -66-77-99-1111-14~~|
d|-------------    -------------------|
a|-------------    -------------------|
e|-------------    -------------------|

guitar 2 - same pattern as verse comes in from second bar of guitar 1 and then continues 
to song to understand)
e|---------------|
b|---------------|
g|-6-6-6--66-6-6-|
d|-7-7-7--77-7-7-|
a|---------------|
e|---------------|

Verse x2
e|-----------------------------| |--------------|
b|-----------------------------| |--------------|
g|-6-6-6--66-6-6---6~~~--9b----| |-99-77-66-77--|  x4
d|-7-7-7--77-7-7---7~~~--------| |--------------|
a|-----------------------------| |--------------|
e|-----------------------------| |--------------|

Bridge
e|------------------------------------------------------------|
b|------------------------------------------------------------|
g|-99999999-1111111111111111-13131313131313131313131313131313-|
d|------------------------------------------------------------|
a|------------------------------------------------------------|
e|------------------------------------------------------------|

Chorus
e|-------------------------     -----------------------------------|
b|-------------------------     -----------------------------------|
g|-77-77-77-77-66-66-66-66-  x2 -77777777777777776666666666666666--|  x2
d|-77-77-77-77-77-77-66-66-     -77777777777777777777777766666666--|
a|-------------------------     -----------------------------------|
e|-------------------------     -----------------------------------|

e|--------------------|  |--------------|
b|--------------------|  |o-10----10~--o|
g|-77777777777777776~-|  |----9-6-------| x4
d|-77777777777777777~-|  |--------------|
a|--------------------|  |o------------o|
e|--------------------|  |--------------|

e|---9--9-----9---9-9-    -----9------9-----9----9---9-9-9-9-9-9-9-999999999-|
b|-10-10-10--9-9-7-7--    -1010-101010-10-99-9-77-7-101010101010101099997777-|
g|-------------------- x6 ---------------------------------------------------|
d|--------------------    ---------------------------------------------------|
a|--------------------    ---------------------------------------------------|
e|--------------------    ---------------------------------------------------|

guitar 2 - after 4th on guitar 1
e|-------      ----------|
b|-------      ----------|
g|-66-66-  x 7 -66666666-|
d|-77-77-      -77777777-|
a|-------      ----------|
e|------       ----------|

Chorus
e|-----------------------------------|
b|-----------------------------------|
g|-77777777777777776666666666666666--|  x4
d|-77777777777777777777777766666666--|
a|-----------------------------------|
e|-----------------------------------|

e|-------------------------|
b|-------------------------|
g|-77-77-77-77-66-66-66-66-|  x2
d|-77-77-77-77-77-77-66-66-|
a|-------------------------|
e|-------------------------|

Outro - x4
e|--------------------------------------------|      |----|  
b|---------12121210101099-10101099977-999777--|      |----|
g|-77766677---------------------------------9-|      |-7~-| let ring at end
d|--------------------------------------------|      |----|
a|--------------------------------------------|      |----|
e|--------------------------------------------|      |----|

I think its right. Feel free to rate and comment.
            
Submit corrections

comments powered by Disqus
↑ Back to top | The Pigeon Detectives Tabs for You Better Not Look My Way. Lyrics for acoustic guitar and electric guitar. Tablatures and chords are parodies/interpretations of the original songs. You may use it for private study, scholarship, research or language learning purposes only