» » »

Caght In Your Trap Bass tabs (ver.1)

Artists:  A B C D E F G H I J K L M N O P Q R S T U V W X Y Z # 

Caght In Your Trap Bass tabs (ver.1)

The Pigeon Detectives
Rating:
5/5 (2 votes)

Hard to play? Try these video lessons and learn fast.
                Intro
G|-2220---02220---02220---02-|
D|-----222-----222-----222---|
A|---------------------------|
E|---------------------------|

Verse 
G|-22222220--------------------|
D|---------2222222-442-2-442-2-| 
A|--------------------4-----4--|
E|-----------------------------| x2

Chorus
G|---------------7------------------------------------------|
D|-000000002--7h9---0000000042----000000002-000000002222222-|
A|----------------------------420---------------------------|
E|----------------------------------------------------------|

G|-02220---02220---02220---02220----|
D|------222-----222-----222-----222-|
A|----------------------------------|
E|----------------------------------|

Verse 
G|-22222220--------------------|
D|---------2222222-442-2-442-2-| 
A|--------------------4-----4--|
E|-----------------------------| x2

Chorus
G|---------------7------------------------------------------|
D|-000000002--7h9---0000000042----000000002-000000002222222-|
A|----------------------------420---------------------------|
E|----------------------------------------------------------|

G|-02220---02220---02220---02-|
D|-----222-----222-----222----|
A|----------------------------|
E|----------------------------|

Interlude
G|-----------------------|
D|-0-0-0-02444442-444442-|
A|--0-0-0----------------|
E|-----------------------| x2

Chorus
G|--------------------------------------------------|
D|-000000002222222200000000222222220000000022222222-|
A|--------------------------------------------------|
E|--------------------------------------------------|

Outro
G|-02220---02220---02220---02-2-2-|
D|--------------------------------|
A|--------------------------------|
E|--------------------------------|
            
Hard to play? Try these video lessons and learn fast. | Correct




comments powered by Disqus
↑ Back to top | Tablatures and chords are parodies/interpretations of the original songs. You may use it for private study, scholarship, research or language learning purposes only