» » »

The Menzingers, Casey Chords (ver.1)

Artists:  A B C D E F G H I J K L M N O P Q R S T U V W X Y Z # 

Casey Chords (ver.1)

The Menzingers Tabs
 Rating:
4/5 (5 votes)
Casey lessons Tabs too difficult? Try these video lessons and learn fast
                --------------------------------------------------------------------------
---------------------------------------------------------------------------

Tuning: Half-step down



Favorite song off the new record, so figured I'd tab it out. Thanks for Too Fast for the 
help on this one. The tabs are at the bottom!



INTRO: (w/ lead)

E    C#m     E    A    [x2]


VERSE:
       E
Well I sat and thought about you
       A
On the long ride back to Philly
         C#m
                      A
To the way that you'd laugh when you drank too much
           B
Before the plug was pulled, the fires burned out
            C#m          A
And all the parties grew bored
           B
You waited tables
                  A
I waited for your shift breaks


INTRO: (w/lead)
E    C#m     E    A    [x2]


VERSE:
E
And Jen and Casey
            A
Youll still dance inside of me
      C#m
And I bet I sound like a broken record
A
       Every time I open my mouth
B                           C#m            A
I want to wander around the city with you again
                     B
Like when you waited tables
                      A
And I waited for your shift breaks


CHORUS:
E
Me and Casey
               C#m             A
We used to get drunk before we did the dishes
E        A
   Every evening
       E                 C#m             A
Me and Casey used to get high and listen to our boredom
E                        A
    Cause it was so much easier
                     C#m       E                  A
Cause it was so much easier     than dealing with everything
B
So Casey, Casey, Casey


BRIDGE:
     Abm
Just tell me when youre ready
  C#m      A
Im all packed to go
     B                                  C#m      A
On a search for that old place we found forever ago
     Abm
When we could take my car
     C#m                 A
Yes, she's still got the spirit
B
We could live and no longer just have to hear it


INTRO: (w/lead)
E    C#m     E    A    [x2]


TRANSITION: (w/ lead)
A


CHORUS:
E
Me and Casey
               C#m             A
We used to get drunk before we did the dishes
E        A
   Every evening
       E                 C#m             A
Me and Casey used to get high and listen to our boredom
E                        A
    Cause it was so much easier
                     C#m       E                  A
Cause it was so much easier     than dealing with everything
                     C#m       E                  A
Cause it was so much easier     than dealing with everything
                     C#m       E                  A
Cause it was so much easier     than dealing with everything




INTRO LEAD:
   E                               C#m
eb|-------------------------------|-----------------------9---------|
Bb|--------------------10--9------|-------------------12-----10--12-|
Gb|-9---9-9-11h9-9-9-9-------9--9-|-9--9-9-11h9-9-9-9---------------|
Db|-------------------------------|---------------------------------|
Ab|-------------------------------|---------------------------------|
Eb|-------------------------------|---------------------------------|
   E                               A
eb|-------------------------------|------12--------12--------12-----|
Bb|--------------------10--9------|----------12---------12-------12-|
Gb|-9---9-9-11h9-9-9-9-------9--9-|-9--9----------------------------|
Db|-------------------------------|---------------------------------|
Ab|-------------------------------|---------------------------------|
Eb|-------------------------------|---------------------------------|



TRANSITION LEAD:
eb|--------------------------------|
Bb|--------------------------------|
Gb|--------------------------------|
Db|-2--4--6--------7--6---4--------|
Ab|-0--0--0--------0--0---0--------|
Eb|--------------------------------|
            
Submit corrections

comments powered by Disqus
↑ Back to top | The Menzingers Chords for Casey. Lyrics for acoustic guitar and electric guitar. Tablatures and chords are parodies/interpretations of the original songs. You may use it for private study, scholarship, research or language learning purposes only