» » »

Wwe Goldberg Tabs (ver.1)

Artists:  A B C D E F G H I J K L M N O P Q R S T U V W X Y Z # 

Wwe Goldberg Tabs (ver.1)

Theme Music
Rating:
0/5 (0 votes)

Hard to play? Try these video lessons and learn fast.
                (Theme)
WWE Goldberg Theme Song

Standard Tuning

(1st Part)

-----------------------------
-----------------------------
-----------------------------
-----------------------------
-----------------------------
-0--0--0-0-0---0--0--0-0-0---

(2nd Part, Main Part)

-------------------------------------10-11--13~--11-10-11----------
--11~------11-12--14~--12-11-12--9~------------------------12~-----
-------9~----------------------------------------------------------

---------------------------12--14~--------12--14~------------------
--13-14--16~--14--13---11~----------10~----------------------------
            
Hard to play? Try these video lessons and learn fast. | Correct




comments powered by Disqus
↑ Back to top | Tablatures and chords are parodies/interpretations of the original songs. You may use it for private study, scholarship, research or language learning purposes only