>
 >
Legend Of Zelda: Lon Lon Ranch

Legend Of Zelda: Lon Lon Ranch Guitar Tabs

Theme Music - Legend Of Zelda:  Lon Lon Ranch chords, tabs, tablatures, lyrics

Guitar lessons | Add/correct | Request | Top 50 tabs Artists:  A B C D E F G H I J K L M N O P Q R S T U V W X Y Z 0-9

Legend Of Zelda: Lon Lon Ranch Guitar Tabs – Theme Music

CD, Sheet music, Poster

Do you like Legend Of Zelda: Lon Lon Ranch? Share with your friends now
Tabs
I really luv this game.
 
E.

*Standard tuning & 3/3 time (i think...)
e]--|--------------------|-------------------|-------------------||-
B]--|/--3--0-----3--0-----|--3--0-----0-------|--------------3----||-
G]--|--------2--------2--|--------2-----2----|--------0--2-------||-
D]--|--------------------|-------------------|--4--4-------------||-
A]--|\--------------------|-------------------|-------------------||-
E]--|--------------------|-------------------|-------------------||-

e]-----0-------------|/-------0---------|||
B]--3-----3--0-------\|/--3---------3----|||
G]--------------2----|/-----------------|||
D]-------------------|/-----------------|||
A]-------------------/|/-----------------|||
E]-------------------|/-----------------|||

!Note!                           /
       /                          /
        ---> dal segno al coda.  / ---> coda.
                                 /
       \                          /
                                 /





Comments


Popular Theme Music tabs & chords
Courage The Cowardly Dog Theme Tabs
Ford Truck Song 1 Tabs
Happy Birthday 1 Tabs
Harry Bo Tabs
James Bond - Goldfinger Tabs
Magic Roundabout Theme Tabs
Meow Mix Tabs
Mission Impossible Theme 2 Tabs
Monkey Island Theme Tabs
The A-Team Tabs


Song lyrics



↑ Back to top | Tablatures and chords are parodies/interpretations of the original songs. You may use it for private study, scholarship, research or language learning purposes only
© 2014 AZChords.com Contact us | Privacy policy | DMCA | Add/correct tabs | Request tabs | Top 50 tabs