» » »

Legend Of Zelda: Lon Lon Ranch Tabs (ver.1)

Artists:  A B C D E F G H I J K L M N O P Q R S T U V W X Y Z # 

Legend Of Zelda: Lon Lon Ranch Tabs (ver.1)

Theme Music
Rating:
0/5 (0 votes)

Hard to play? Try these video lessons and learn fast.
                I really luv this game.
 
E.

*Standard tuning & 3/3 time (i think...)
e]--|º--------------------|-------------------|-------------------||-
B]--|/--3--0-----3--0-----|--3--0-----0-------|--------------3----||-
G]--|º--------2--------2--|--------2-----2----|--------0--2-------||-
D]--|º--------------------|-------------------|--4--4-------------||-
A]--|\--------------------|-------------------|-------------------||-
E]--|º--------------------|-------------------|-------------------||-

e]-----0-------------º|/-------0---------|||
B]--3-----3--0-------\|/--3---------3----|||
G]--------------2----º|/-----------------|||
D]-------------------º|/-----------------|||
A]-------------------/|/-----------------|||
E]-------------------º|/-----------------|||

!Note! º                          /
       /                          /
       º ---> dal segno al coda.  / ---> coda.
       º                          /
       \                          /
       º                          /
            
Hard to play? Try these video lessons and learn fast. | Correct




comments powered by Disqus
↑ Back to top | Tablatures and chords are parodies/interpretations of the original songs. You may use it for private study, scholarship, research or language learning purposes only