» » »

The Junior Varsity, Sky Tabs (ver.2)

Artists:  A B C D E F G H I J K L M N O P Q R S T U V W X Y Z # 

Sky Tabs (ver.2)

The Junior Varsity Tabs
 Rating:
4.3/5 (6 votes)
Sky lessons Tabs too difficult? Try these video lessons and learn fast
1
                Tuning-half step down (Eb Ab Db Gb Bb Eb)
Band-The Junior Varsity
Song-The Sky
Album-Cinematographic

h-hammer on
p-pull off

Intro

0:00-0:09
Eb|-----------------------------------------------------------------------|
Bb|---------------------0--------------------0--------------------0-------|
Gb|---0---5-4--0---------0-----5-4--0---------0-----5-4--0---------0------|
Db|-4---5-5-5-2-4h2p0--4--4--5-5-5-2-4h2p0--4--4--5-5-5-2-4h2p0--4--4-----|
Ab|--5--7-------------5----5-7-------------5----5-7-------------5----5----|
Eb|-----------------------------------------------------------------------|

on fourth time end with this

0:09-0:13
Eb|---------5-14h15p14h15p14h15--------------------|
Bb|-------5-5--------------------------------------|
Gb|---5-4-0-5--------------------------------------|
Db|-5-5-5-5-5--------------------------------------|
Ab|-7----------------------------------------------|
Eb|------------------------------------------------|

0:13-0:25
Eb|--------------------------------------------------------|
Bb|-----------------0--------------------0-----------------|
Gb|---5-4--0---------0-----5-4--0---------0----------------|
Db|-5-5-5-2-4h2p0--4--4--5-5-5-2-4h2p0--4--4--9-7-5-5- <---|listen to the
Ab|-7-------------5----5-7-------------5----5-7-5-3-2------|    song for rhythm
Eb|--------------------------------------------------------|

Chorus

0:25-0:38
Eb|--------------------------------|
Bb|-1-1-1-1-1-1-1-1----------------|
Gb|-0-0-2-0-0-0-0-0----------------|
Db|-2-0-2-2-0-0-0-2-4--------- <---|listen to the song for rhythm
Ab|-3-2-0-3-2-2-2-3-6x10-----------|
Eb|-----------3--------------------|

Verse

0:38-0:45
Eb|----------------------|
Bb|-----------------0----|
Gb|---5-4--0---------0---|
Db|-5-5-5-2-4h2p0--4--4--|   2x
Ab|-7-------------5----5-|
Eb|----------------------|

0:45-0:51
Eb|------------------------------------|
Bb|--0--0--0--0--0--0------------------|
Gb|---0--0--0--0--0--0-----------------|
Db|-2--2--2--2--2--2-------------------|
Ab|-3------------------2h3p2-----------|
Eb|-------------------------h3h5p3p2p0-|

0:51-0:58
Eb|----------------------|
Bb|-----------------0----|
Gb|---5-4--0---------0---|
Db|-5-5-5-2-4h2p0--4--4--|   2x
Ab|-7-------------5----5-|
Eb|----------------------|

0:58-1:04
Eb|------------------------------------|
Bb|--0--0--0--0--0--0------------------|
Gb|---0--0--0--0--0--0-----------------|
Db|-2--2--2--2--2--2-------------------|
Ab|-3------------------2h3p2-----------|
Eb|-------------------------h3h5p3p2p0-|

Chorus
a little bit different than the first chorus

1:04-1:25
Eb|-----------------------------------|
Bb|-1-1-1-1-1-1-1-1-1-1-1-------------|
Gb|-0-0-2-0-0-0-0-0-0-0-0-------------|
Db|-2-0-2-2-0-0-0-2-0-0-2-4------ <---|listen to the song
Ab|-3-2-0-3-2-2-2-3-2-2-3-6x15--------|    for rhythm
Eb|-----------3-----3-----------------|

Bridge

1:25-1:54
Eb|--------------------------------------------------------------------------|
Bb|--8-8-8-8-8-8-8-8-8-8-8-8-8-8-8-8--8--8--8--8--8--8--8--8-8-8-8-8-8-8-8-8-|
Gb|-9-9-9-9-9-9-9-9-7-7-7-7-7-7-7-7-------------------------7-7-7-7-7-7-7-7--|
Db|---------------------------------10-10-10-10-10-10-10-10------------------|
Ab|--------------------------------------------------------------------------|
Eb|--------------------------------------------------------------------------|

play that a total of 3x's
on the 4th time play this

1:54-2:03
Eb|-------------------------------------------------|
Bb|--8-8-8-8-8-8-8-8-8-8-8-8-8-8-8-8----------------|
Gb|-9-9-9-9-9-9-9-9-7-7-7-7-7-7-7-7-----------------|
Db|----------------------------------9-7-5-7--  <---|listen to the song for
Ab|----------------------------------7-5-3-5--------|     rhythm
Eb|-------------------------------------------------|

2:03-2:11
Eb|----------|
Bb|----------|
Gb|----------|
Db|-5-4-2-4--| Palm mute, listen to the song for rhythm
Ab|-7-5-3-5--|
Eb|----------|

2:11-2:13
Drum Fill

Outro

2:13-2:42                   2:21, 2:31, 2:41
Eb|---------                Eb|-7h8p7-------------------|
Bb|---------                Bb|------h8h10p8p7p0--------|
Gb|--------- 3x             Gb|-----------------h9p7----|
Db|-9-7-5-7- Let last chord Db|-------------------------|
Ab|-7-5-3-5- ring over riff Ab|-------------------------|
Eb|---------                Eb|-------------------------|


2:42-2:49
Eb|---------------------------|
Bb|-----------------0---------|
Gb|---5-4--0---------0--------|
Db|-5-5-5-2-4h2p0--4--4--5----|
Ab|-7-------------5----5-7----|
Eb|---------------------------|

there you go...
            
Submit corrections

comments powered by Disqus
↑ Back to top | The Junior Varsity Tabs for Sky. Lyrics for acoustic guitar and electric guitar. 1 Tablatures and chords are parodies/interpretations of the original songs. You may use it for private study, scholarship, research or language learning purposes only