» » »

Histrionics Tabs (ver.4)

Artists:  A B C D E F G H I J K L M N O P Q R S T U V W X Y Z # 

Histrionics Tabs (ver.4)

The Higher
Rating:
0/5 (0 votes)

Hard to play? Try these video lessons and learn fast.
                The higher - Histrionics


    
E||--------------------------|-------------------------|
B||--------------12----------|--------12---------------|
G||--------13----------------|--11----------------9----|
D||--14----------------13----|--------------11---------|
A||--------------------------|-------------------------|
E||--------------------------|-------------------------|

   
------------------------|-----------------|-----------------|------------||
--12--------------12----|-----------------|-----------------|------------||
-------------7----------|-------9---------|--9---------9----|-------9----||
--------9---------------|--7---------7----|-------7---------|--7---------||
------------------------|-----------------|-----------------|------------||
------------------------|-----------------|-----------------|------------||
            
Hard to play? Try these video lessons and learn fast. | Correct




comments powered by Disqus
↑ Back to top | Tablatures and chords are parodies/interpretations of the original songs. You may use it for private study, scholarship, research or language learning purposes only