» » »

The Higher, Histrionics Tabs (ver.2)

Artists:  A B C D E F G H I J K L M N O P Q R S T U V W X Y Z # 

Histrionics Tabs (ver.2)

The Higher Tabs
 Rating:
4/5 (6 votes)
Histrionics lessons Tabs too difficult? Try these video lessons and learn fast
                standard tuning

e|-------7-----7---0-----0------------0-------------0----------|
b|-----9-----9-------4-----2---0----0---0---0---0-----0---0----|
g|---9-----8-----6-----4-----2---2--------2---2---2-----2------|
d|-------------------------------------------------------------|
a|-------------------------------------------------------------|
E|-------------------------------------------------------------|
When you play this, slide on the g string and emphasize this string. Make sure you 
to the rhythm correctly. This is the way I play it, but here is the way I've seen it played 
one of their concerts.

e|-------------------------------------0--------------0--------|
b|------12-----12----------------0---0---0---0----0-----0---0--|
g|----13-----13------9/8---9/6---------------------------------|
d|--14-----13-----11-----9-----7---7-------7----7---7-----7----|
a|-------------------------------------------------------------|
E|-------------------------------------------------------------|
Make sure you emphasize the D string here.
I am sure this tab is correct don't listen to nobody! Unless it looks like this. 
to listen for the rhythms. -Rex
            
Submit corrections

comments powered by Disqus
↑ Back to top | The Higher Tabs for Histrionics. Lyrics for acoustic guitar and electric guitar. Tablatures and chords are parodies/interpretations of the original songs. You may use it for private study, scholarship, research or language learning purposes only