» » »

The Dodos, The Season Tabs (ver.2)

Artists:  A B C D E F G H I J K L M N O P Q R S T U V W X Y Z # 

The Season Tabs (ver.2)

The Dodos Tabs
Rating:
0/5 (0 votes)
The Season lessons Tabs too difficult? Try these video lessons and learn fast
                You have to pluck really fast. Enjoy, CAPO ON THE FOURTH FRET.
Thanks,

Jake Miller

Intro:

e|----------------------------------------------------------------|
B|-----------------0-------------------------------0--------------|
G|-7---------7-------------7-------6---------6-------------6------|
D|-------0-------------------------------0------------------------|
A|----------------------------------------------------------------|
E|-7---7---7---7---7---7---7---7---7---7---7---7---7---7---7---7--|

e|----------------------------------------------------------------|
B|-----------------0-------------------------------0--------------|
G|-7---------7-------------7-------6---------6-------------0------|
D|-------0-------------------------------0------------------------|
A|----------------------------------------------------------------|
E|-7---7---7---7---7---7---7---7---7---7---7---7---7---7---7---7--|

e|----------------------------------------------------------------|
B|-----------------0-------------------------------0--------------|
G|-11--------11------------11------11--------11------------11-----|
D|-------0-------------------------------0------------------------|
A|----------------------------------------------------------------|
E|-10--10--10--10--10--10--10--10--10--10--10--10--10--10--10--10-|

e|-----------------------------------------------------|
B|-----------------0-----------------------------------|
G|-11--------11------------11--------------------------|
D|-------0---------------------------------------------|
A|-10--10--10--10--10--10--10--10----------------------|
E|-----------------------------------------------------|

e|-----------------------------------------------------|
B|-----------------0-----------------------------------|
G|-9---------9-------------9---------------------------|
D|-------0---------------------------------------------|
A|-----------------------------------------------------|
E|-0---0---0---0---0---0---0---0-----------------------|

e|----------------------------------------------------------------|
B|-----------------0-------------------------------0--------------|
G|-7---------7-------------7-------6---------6-------------6------|
D|-------0-------------------------------0------------------------|
A|----------------------------------------------------------------|
E|-7---7---7---7---7---7---7---7---7---7---7---7---7---7---7---7--|

e|----------------------------------------------------------------|
B|-----------------0-------------------------------0--------------|
G|-7---------7-------------7-------6---------6-------------0------|
D|-------0-------------------------------0------------------------|
A|----------------------------------------------------------------|
E|-7---7---7---7---7---7---7---7---7---7---7---7---7---7---7---7--|

e|----------------------------------------------------------------|
B|-----------------0-------------------------------0--------------|
G|-11--------11------------11------11--------11------------11-----|
D|-------0-------------------------------0------------------------|
A|----------------------------------------------------------------|
E|-10--10--10--10--10--10--10--10--10--10--10--10--10--10--10--10-|

e|-----------------------------------------------------|
B|-----------------0-----------------------------------|
G|-11--------11------------11--------------------------|
D|-------0---------------------------------------------|
A|-10--10--10--10--10--10--10--10----------------------|
E|-----------------------------------------------------|

e|-----------------------------------------------------|
B|-----------------0-----------------------------------|
G|-9---------9-------------9---------------------------|
D|-------0---------------------------------------------|
A|-----------------------------------------------------|
E|-0---0---0---0---0---0---0---0-----------------------|

Verse:

e|----------------------------------------------------------------|
B|-----------------0-------------------------------0--------------|
G|-7---------7-------------7-------11--------11------------11-----|
D|-------0-------------------------------0------------------------|
A|----------------------------------------------------------------|
E|-7---7---7---7---7---7---7---7---10--10--10--10--10--10--10--10-|

e|----------------------------------------------------------------|
B|-----------------0-------------------------------0--------------|
G|-11--------11------------11------9---------9-------------9------|
D|-------0-------------------------------0------------------------|
A|-10--10--10--10--10--10--10-------------------------------------|
E|-----------------------------0---0---0---0---0---0---0---0---0--|

e|----------------------------------------------------------------|
B|-----------------0-------------------------------0--------------|
G|-7---------7-------------7-------11--------11------------11-----|
D|-------0-------------------------------0------------------------|
A|----------------------------------------------------------------|
E|-7---7---7---7---7---7---7---7---10--10--10--10--10--10--10--10-|


e|----------------------------------------------------------------|
B|-----------------0-------------------------------0--------------|
G|-11--------11------------11------9---------9-------------0------|
D|-------0-------------------------------0------------------------|
A|-10--10--10--10--10--10--10-------------------------------------|
E|-----------------------------0---0---0---0---0---0---0---0---0--|

Chorus x4:

e|---------------------------------------------------------0------|
B|---------------------------------3---------3-----3--------------|
G|-4---------4-----4-------0-------------0------------------------|
D|-------0-----------------------------0-------0-------0-------0--|
A|-----2-------2-------2-------2---2-------2-------2-------2------|
E|-3-------3-------3-------3--------------------------------------|

e|-------------------------------------------------0---0---0---0--|
B|-0---------0-----0---------0-----2---------2-----2---2---2---0--|
G|-------0---------------0---------------0---------0---0---0---0--|
D|-----2-------2-------2-------2-------2-------2---2---2---2---0--|
A|-2-------2-------2-------2-------0-------0-------0---0---0---0--|
E|----------------------------------------------------------------|

Then it repeats over again.

The following is all down strums. I put the chords in the order that they appear and I 
the lyrics to the next part. It was to tedious to list out all of the strums.

I cross this sand without your hand. I go back to when it all began, when I was yours 
you were mine. This seem so soon to say good bye. I hope youre well as I am fine. I keep 
myself where I go, where I ride.

e|-x---x---x---x---x---x---x---x---x---x---x---x---x---x---x---x--|
B|-8---6---8---6---3---6---4---3---3---6---4---3---3---6---4---3--|
G|-7---7---7---7---3---0---0---0---3---0---0---0---3---0---0---0--|
D|-8---8---8---8---0---7---5---5---0---7---5---5---0---7---5---5--|
A|-6---x---6---x---0---x---6---6---0---x---6---6---0---x---6---6--|
E|-x---6---x---6---3---6---x---x---3---6---x---x---3---6---x---x--|

e|-x---x---x---0--------------------------------------------------|
B|-3---0---4---0--------------------------------------------------|
G|-3---3---0---0--------------------------------------------------|
D|-0---0---5---0--------------------------------------------------|
A|-0---0---6---0--------------------------------------------------|
E|-3---2---x---3---3---3---3---3----------------------------------|

e|----------------------------------------------------------------|
B|---------------------------------0---------0-----0--------------|
G|-0---------0-----0----------------------------------------------|
D|-------0-----------------0-------------0-----------------0------|
A|----------------------------------------------------------------|
E|-3---3---3---3---3---3---3---3---3---3---3---3---3---3---3---3--|

e|----------------------------------------------------------------|
B|---------------------------------0-----0---0-----0--------------|
G|-------0---------0----------------------------------------------|
D|-1---------1-------------1-------------------------------1------|
A|----------------------------------------------------------------|
E|-3---3---3---3---3---3---3---3---3---3---3---3---3---3---3---3--|

The two above repeat twice

This next vocal section repeat twice.

I woke up in a
e|----------------------------------------------------------------|
B|----------------------------------------------------------------|
G|-4---------4-----4---------------4---------4-----4--------------|
D|-------0-----------------0-------------0-----------------0------|
A|----------------------------------------------------------------|
E|-3---3---3---3---3---3---3---3---2---2---2---2---2---2---2---2--|

cave
e|----------------------------------------------------------------|
B|----------------------------------------------------------------|
G|-------0---------0---------------------0---------0--------------|
D|-2---------2-------------2-------2/4-------4-------------4------|
A|-0---0---0---0---0---0---0---0---0---0---0---0---0---0---0---0--|
E|----------------------------------------------------------------|

No air, no light
e|----------------------------------------------------------------|
B|----------------------------------------------------------------|
G|-------0---------0---------------0---------0-----0--------------|
D|-5---------5-------------5-------------8-----------------8------|
A|----------------------------------------------------------------|
E|-5---5---5---5---5---5---5---5---8---8---8---8---8---8---8---8--|

no shade
e|----------------------------------------------------------------|
B|----------------------------------------------------------------|
G|-------0-----------------0-------0---------0-----0--------------|
D|-0---------0-----0---------------------0-----------------0------|
A|----------------------------------------------------------------|
E|-3---3---3---3---3---3---3---3---3---3---3---3---3---3---3---3--|

e|----------------------------------------------------------------|
B|---------------------------------0---------0-----0--------------|
G|-0---------0-----0----------------------------------------------|
D|-------0-----------------0-------------0-----------------0------|
A|----------------------------------------------------------------|
E|-3---3---3---3---3---3---3---3---3---3---3---3---3---3---3---3--|

e|----------------------------------------------------------------|
B|---------------------------------0-----0---0-----0--------------|
G|-------0---------0----------------------------------------------|
D|-1---------1-------------1-------------------------------1------|
A|----------------------------------------------------------------|
E|-3---3---3---3---3---3---3---3---3---3---3---3---3---3---3---3--|

The two above repeat four times.

The voices happen here.

Listen to the song for the rhythm and for the organization.

e|-0--0--0--0--0--0--0--0--0--0--0--0--0--0--|
B|-4--4--4--3--1--0--0--0--0--0--0--1--0--0--|
G|-0--0--0--0--0--0--0--0--0--0--0--0--0--0--|
D|-0--0--0--0--0--0--0--0--0--0--0--0--0--0--|
A|-0--0--0--0--0--0--0--0--0--0--0--0--0--0--|
E|-3--3--3--3--3--3--3--3--3--3--3--3--3--3--|

e|-0--0--0--0--0--0--0--0--0--0--0--0--0--0--|
B|-3--3--3--1--0--0--0--0--0--0--0--0--0--0--|
G|-0--0--0--0--0--4--4--4--4--4--3--2--0--2--|
D|-0--0--0--0--0--0--0--0--0--0--0--0--0--0--|
A|-0--0--0--0--0--0--0--0--0--0--0--0--0--0--|
E|-3--3--3--3--3--3--3--3--3--3--3--3--3--3--|

e|-0--0--0--0--0--0--0--0--0--0--0--0--0--|
B|-0--0--0--0--0--0--0--0--0--0--0--0--0--|
G|-0--0--0--0--0--0--0--0--0--0--0--0--0--|
D|-0--2--0--4--2--0--0--2--0--4--2--0--2--|
A|-0--0--0--0--0--0--0--0--0--0--0--0--0--|
E|-3--3--3--3--3--3--3--3--3--3--3--3--3--|
            

comments powered by Disqus
↑ Back to top | The Dodos Tabs for The Season. Lyrics for acoustic guitar and electric guitar. Tablatures and chords are parodies/interpretations of the original songs. You may use it for private study, scholarship, research or language learning purposes only