>
 >
Companions

Companions Guitar Tabs

The Dodos - Companions chords, tabs, tablatures, lyrics

Guitar lessons | Add/correct | Request | Top 50 tabs Artists:  A B C D E F G H I J K L M N O P Q R S T U V W X Y Z 0-9

Companions Guitar Tabs – The Dodos

CD, Sheet music, Poster

Do you like Companions? Share with your friends now
TabsTabs v2
-------------------------------------------------------------------------------
-------------------------------------------------------------------------------

Tuning: EADGBE

you can use my tutorial video for reference. it's not great i know, but it should help.

Intro:

e|-------5----3----3----3----5--3---3------3----3----3----0-2-3----0-2-3----|
B|-----5----5----5----5----5------5------2----2----2----2--------2----------|
G|---4----4----4----4----4-------------2----2----2----2--------2---------2--|
D|--------------------------------------------------------------------------|
A|--------------------------------------------------------------------------|
E|--------------------------------------------------------------------------|

e|------2----2----2-----0-2-0----2-0---2-----2----2----2----0-2----0-2-------|
B|----3----3----3-----3--------3-----3-----3----3----3----3------3-----------|
G|--2----2----2-----2--------2-----------4----4----4-----4------4------4-----|
D|---------------------------------------------------------------------------|
A|---------------------------------------------------------------------------|
E|---------------------------------------------------------------------------|


e|-------5----3----3----3----5--3---3------3----3----3----0-2-3----0-2-3-----|
B|-----5----5----5----5----5------5------2----2----2----2--------2-----------|
G|---4----4----4----4----4-------------2----2----2----2--------2---------2---|
D|---------------------------------------------------------------------------|
A|---------------------------------------------------------------------------|
E|---------------------------------------------------------------------------|

e|------2----2----2-----0-2-0----2-0---2-----2----2----2----0-2----0-2-------|
B|----3----3----3-----3--------3-----3-----3----3----3----3------3-----------|
G|--2----2----2-----2--------2-----------4----4----4-----4------4------4-----|
D|---------------------------------------------------------------------------|
A|---------------------------------------------------------------------------|
E|---------------------------------------------------------------------------|

e|------2----2----2----2---------------------0----0----0----0-2----0-2-------|
B|----3----3----3----3---5-3---5-3-0-3-----2----2----2----2------2-----------|
G|--0----0----0----0---------0-----------3----3----3----3------3-------3-----|
D|---------------------------------------------------------------------------|
A|---------------------------------------------------------------------------|
E|---------------------------------------------------------------------------|

e|------2----2----2-----2--------------------2----2----2----0-2----0-2-------|
B|----3----3----3-----3---5-3---5-0-3------3----3----3----3------3-----------|
G|--4----4----4-----4---------4----------4----4----4-----4------4------4-----|
D|---------------------------------------------------------------------------|
A|---------------------------------------------------------------------------|
E|---------------------------------------------------------------------------|

e|------2----2----2----2---------------------0----0----0----0-2----0-2-------|
B|----3----3----3----3---5-3---5-3-0-3-----2----2----2----2------2-----------|
G|--0----0----0----0---------0-----------3----3----3----3------3-------3-----|
D|---------------------------------------------------------------------------|
A|---------------------------------------------------------------------------|
E|---------------------------------------------------------------------------|

e|------2----2----2-----2--------------------2----2----2----0-2----0-2-------|
B|----3----3----3-----3---5-3---5-0-3------3----3----3----3------3-----------|
G|--4----4----4-----4---------4----------4----4----4-----4------4------4-----|
D|---------------------------------------------------------------------------|
A|---------------------------------------------------------------------------|
E|---------------------------------------------------------------------------|

meanwhile the electric guitar does this:

e|----------------------------------------------------------------------------|
B|----------------------------------------------------------------------------|
G|----------------------------------------------------------------------------|
D|----4-4p2-0h2-0-----0--------0-2-----0-2--2/4--0----------------------------|
A|----------------0-0h2-----0h2-----0h2---------------------------------------|
E|-----------------------3----------------------------------------------------|

e|----------------------------------------------------------------------------|
B|----------------------------------------------------------------------------|
G|----------------------------------------------------------------------------|
D|----5--5\4--2h4-2-0-----0--------0-2-----0-2--2/4--0------------------------|
A|--------------------0h2------0h2-----0h2------------------------------------|
E|--------------------------0-------------------------------------------------|


e|----------------------------------------------------------------------------|
B|----------------------------------------------------------------------------|
G|----------------------------------------------------------------------------|
D|----5--5\4--2h4-2-0-----0---------------------------------------------------|
A|--------------------0h2-----------------------------------------------------|
E|--------------------------3-------------------------------------------------|

back to the acoustic guitar:

this picking change here in the beginning may sound weird, but i'm sure thats what meric 
plays(i've seen him do it!).
lets name this Intro 2

e|----------------------------------------------------------------------------|
B|--3-------3-------3-------3-----------3-------3-------3-------3-------------|
G|------2-------2-------2-------2---2-------2-------2-------2-----------------|
D|----0---0---0---0---0---0---0---0---0---0---0---0---0---0---0---0-----------|
A|----------------------------------------------------------------------------|
E|--3---3---3---3---3---3---3---3---2---2---2---2---2---2---2---2-------------|


e|---------------------------------------------------------------------------|
B|------3-------3-------3-------3-------3-------3-------3-------3------------|
G|--2-------2-------2-------2-------2-------2-------2-------2----------------|
D|----0---0---0---0---0---0---0---0---0---0---0---0---0---0---0---0----------|
A|----------------------------------2---2---2---2---2---2---2---2------------|
E|--0---0---0---0---0---0---0---0--------------------------------------------|

e|---------------------------------------------------------------------------|
B|------3-------3-------3-------3-------3-------3-------3-------3------------|
G|--2-------2-------2-------2-------2-------2-------2-------2----------------|
D|----0---0---0---0---0---0---0---0---0---0---0---0---0---0---0---0----------|
A|---------------------------------------------------------------------------|
E|--3---3---3---3---3---3---3---3---2---2---2---2---2---2---2---2------------|

e|---------------------------------------------------------------------------|
B|------3-------3-------3-------3-------3-------3-------3-------3------------|
G|--2-------2-------2-------2-------2-------2-------2-------2----------------|
D|----0---0---0---0---0---0---0---0---0---0---0---0---0---0---0---0----------|
A|----------------------------------2---2---2---2---2---2---2---2------------|
E|--0---0---0---0---0---0---0---0--------------------------------------------|

and off to the verse:

not sure about this but it looks right from what i can see on live videos
________________________

insipid wait and so we play
e|------9-------9-------9-------9--------------------------------------------|
B|--7-------7-------7-------7-----------5-------5-------5-------5------------|
G|----------------------------------7-------7-------7-------7----------------|
D|----0---0---0---0---0---0---0---0---0---0---0---0---0---0---0---0----------|
A|--9---9---9---9---9---9---9---9---7---7---7---7---7---7---7---7------------|
E|---------------------------------------------------------------------------|

companions
e|---------------------------------------------------------------------------|
B|------3---3-----------3---3-----------3---3-----------3---3----------------|
G|------2---2-----------2---2-----------2---2-----------2---2----------------|
D|----0---0---0---0---0---0---0---0---0---0---0---0---0---0---0---0----------|
A|--2---2---2---2---2---2---2---2---2---2---2---2---2---2---2---2------------|
E|---------------------------------------------------------------------------|

no story games, could you behave?
e|------9-------9-------9-------9--------------------------------------------|
B|--7-------7-------7-------7-----------5-------5-------5-------5------------|
G|----------------------------------7-------7-------7-------7----------------|
D|----0---0---0---0---0---0---0---0---0---0---0---0---0---0---0---0----------|
A|--9---9---9---9---9---9---9---9---7---7---7---7---7---7---7---7------------|
E|---------------------------------------------------------------------------|

companions
e|---------------------------------------------------------------------------|
B|------3---3-----------3---3-----------3---3-----------3---3----------------|
G|------2---2-----------2---2-----------2---2-----------2---2----------------|
D|----0---0---0---0---0---0---0---0---0---0---0---0---0---0---0---0----------|
A|--2---2---2---2---2---2---2---2---2---2---2---2---2---2---2---2------------|
E|---------------------------------------------------------------------------|

Chorus:
the chorus is basically intro 1 and intro 2 together with an electric guitar in the 
background with a hell of a lot of reverb

Guitar I:
e|-------5----3----3----3----5--3---3------3----3----3----0-2-3----0-2-3----|
B|-----5----5----5----5----5------5------2----2----2----2--------2----------|
G|---4----4----4----4----4-------------2----2----2----2--------2---------2--|
D|--------------------------------------------------------------------------|
A|--------------------------------------------------------------------------|
E|--------------------------------------------------------------------------|

Guitar II:
e|---------------------------------------------------------------------------|
B|------3-------3-------3-------3-------3-------3-------3-------3------------|
G|--2-------2-------2-------2-------2-------2-------2-------2----------------|
D|----0---0---0---0---0---0---0---0---0---0---0---0---0---0---0---0----------|
A|---------------------------------------------------------------------------|
E|--3---3---3---3---3---3---3---3---2---2---2---2---2---2---2---2------------|

Guitar I:
e|------2----2----2-----0-2-0----2-0---2-----2----2----2----0-2----0-2-------|
B|----3----3----3-----3--------3-----3-----3----3----3----3------3-----------|
G|--2----2----2-----2--------2-----------4----4----4-----4------4------4-----|
D|---------------------------------------------------------------------------|
A|---------------------------------------------------------------------------|
E|---------------------------------------------------------------------------|

Guitar II:
e|---------------------------------------------------------------------------|
B|------3-------3-------3-------3-------3-------3-------3-------3------------|
G|--2-------2-------2-------2-------2-------2-------2-------2----------------|
D|----0---0---0---0---0---0---0---0---0---0---0---0---0---0---0---0----------|
A|----------------------------------2---2---2---2---2---2---2---2------------|
E|--0---0---0---0---0---0---0---0--------------------------------------------|

x2

Bridgeythingy:

i hold you in, you're holding out
e|---------------------------------------------------------------------------|
B|------0-------0-------0-------0-------3-------3-------3-------3------------|
G|--0-------0-------0-------0-------0-------0-------0-------0----------------|
D|----2---2---2---2---2---2---2---2---2---2---2---2---2---2---2---2----------|
A|--3---3---3---3---3---3---3---3--------------------------------------------|
E|----------------------------------0---0---0---0---0---0---0---0------------|

e|---------------------------------------------------------------------------|
B|------3-------3-------3-------3-------3-------3-------3-------3------------|
G|--2-------2-------2-------2-------2-------2-------2-------2----------------|
D|----0---0---0---0---0---0---0---0---0---0---0---0---0---0---0---0----------|
A|--2---2---2---2---2---2---2---2--------------------------------------------|
E|----------------------------------2---2---2---2---2---2---2---2------------|

i hold you in, you're holding out
e|---------------------------------------------------------------------------|
B|------0-------0-------0-------0-------3-------3-------3-------3------------|
G|--0-------0-------0-------0-------0-------0-------0-------0----------------|
D|----2---2---2---2---2---2---2---2---2---2---2---2---2---2---2---2----------|
A|--3---3---3---3---3---3---3---3--------------------------------------------|
E|----------------------------------0---0---0---0---0---0---0---0------------|

e|---------------------------------------------------------------------------|
B|------3-------3-------3-------3-------3-------3-------3-------3------------|
G|--2-------2-------2-------2-------2-------2-------2-------2----------------|
D|----0---0---0---0---0---0---0---0---0---0---0---0---0---0---0---0----------|
A|---------------------------------------------------------------------------|
E|--3---3---3---3---3---3---3---3---2---2---2---2---2---2---2---2------------|

Verse
Refrain
Bridgythingy
Intro 1 and 2

ends on

e|-----|
B|--3--|
G|--2--|
D|--0--|
A|--2--|
E|-----|

sorry the reverb guitar is missing but i'm sure it is not to hard to figure out
hope you have fun learning this tune, i certainly did :)

************************************

| /   slide up
| \   slide down
| h   hammer-on
| p   pull-off
| ~   vibrato
| +   harmonic
| x   Mute note
| b   Bend
| pb  Pre-bend
| br  Bend release
| pbr Pre-bend release
| brb Bend release bend

************************************





Comments


Popular The Dodos tabs & chords
Two Medicines Chords
Acorn Factory Tabs
Black Night 1 Tabs
Coals Tabs
Fools 2 Tabs
Joes Waltz Tabs
Lily Tabs
Notes Intro Tabs
The Ocean Tabs
Walking Ukulele


Song lyrics



↑ Back to top | Tablatures and chords are parodies/interpretations of the original songs. You may use it for private study, scholarship, research or language learning purposes only
© 2014 AZChords.com Contact us | Privacy policy | DMCA | Add/correct tabs | Request tabs | Top 50 tabs