>
 >
Resign

Resign Guitar Tabs

The Click Five - Resign chords, tabs, tablatures, lyrics

Guitar lessons | Add/correct | Request | Top 50 tabs Artists:  A B C D E F G H I J K L M N O P Q R S T U V W X Y Z 0-9

Resign Guitar Tabs – The Click Five

CD, Sheet music, Poster

Do you like Resign? Share with your friends now
Tabs
The Click Five
Greetings From Imrie House
2005

Key: Bb

Tuning: Standard EADGBe or Drop D

Chords used: for standard
Gm -   355333
Eb -   x68886
Bb/D - x587xx
Bb -   x13331
F -    133211
Cm -   x35543
D -    xx0232
F/A -  x032xx
G# -   466544
F# -   244322


Chords used: for Drop D
G5 -   555xxx
Eb5 -  111xxx
Bb/D - 010xxx
Bb5 -  x133xx
F5 -   333xxx
C5 -   x355xx
D5 -   000xxx
F/A -  x032xx
G#5 -  666xxx
F# -   444xxx


I'm going to use the standard in this song

Verse 1:
                Gm       Eb
I wanna be your Hollywood
        Bb/D           Bb
I could be your movie star
       Eb        Cm
You misunderstood
        F                Bb
Who you really think you are
        D       Gm          Eb
I wanna be your dollar bills
        Bb/D             Bb
I could be your shopping mall
             Eb        Cm
I`ll be your diet pills
         F
I won`t stand to watch you fall


Guitar 2: while doing verses, palm muted
e|-------------3-3-3-3-1-1-1-1---------|
B|-----------------------------4-4-4-4-|
G|-2h3-3-3-3-3-------------------------|
D|-------------------------------------|
A|-------------------------------------|
E|-------------------------------------|

e|---------------------------------|
B|-1-1-1-1-4-4-4-4-------------3-3-|
G|-----------------2-2-2-2-3-3-----|
D|---------------------------------|
A|---------------------------------|
E|---------------------------------|


Chorus:
  Bb  F  Bb
Resign Resign
           F/A  Gm
Those wandering eyes
    Eb            F
And wake up to my love


Post Chorus:
  Bb
Tonight


Guitar 2: while doing post chorus
e|-11--10-----------------11--10-----|
B|---------11------11-------------11-|
G|--------------10----10-------------|
D|-----------------------------------|
A|-----------------------------------|
E|-----------------------------------|


Verse 2:
                    Gm          Eb
Don`t wanna be your plastic doll
              Bb/D           Bb
I feel like I caught up in a race
          Eb            Cm
You can`t break the fall
        F             Bb
I won`t let you go to waste
          D    Gm            Eb
You wanna be designer clothes
      Bb/D         Bb
Its a lame conspiracy
             Eb      Cm
Your routine overdose
        F
Doesn`t mean a thing to me


(Repeat Chorus twice and post chorus)


Interlude: D--G#--D--G#--D--G#--F-F# x2


Guitar 2: while doing interlude
e|----------------------|-------------------------|
B|----------------------|-------------------------|
G|-7--7--7--------------|-10-10-10-10-11-11-11-11-|
D|-7--7--7--6-6-6-6-6-6-|-10-10-10-10-11-11-11-11-|
A|-5--5--5--6-6-6-6-6-6-|--8--8--8--8--9--9--9--9-|
E|----------4-4-4-4-4-4-|-------------------------|
           x3


(Repeat Chorus thrice)





Comments


Popular The Click Five tabs & chords
All I Need Is You Chords
Be In Love Tabs
Don't Let Me Go Tabs
Don't Let Me Go 1 Tabs
Just The Girl 2 Tabs
Nobody's Business Tabs
When Im Gone Tabs
Good Day Ukulele
Ill Take My Chances Ukulele
Just The Girl Ukulele


Song lyrics



↑ Back to top | Tablatures and chords are parodies/interpretations of the original songs. You may use it for private study, scholarship, research or language learning purposes only
© 2014 AZChords.com Contact us | Privacy policy | DMCA | Add/correct tabs | Request tabs | Top 50 tabs