» » »

Friday Night Bass tabs (ver.1)

Artists:  A B C D E F G H I J K L M N O P Q R S T U V W X Y Z # 

Friday Night Bass tabs (ver.1)

The Click Five
Rating:
5/5 (1 vote)

Hard to play? Try these video lessons and learn fast.
                

Please comment and rate! thks

Intro:

G|----------------------|--------------------------------------|
D|----------------------|--------------------------------------|
A|-2------------------4-|-22222222-----------------44444444----|
E|-------0------4-------|---------00000000-44444444------------|


Verse:


G|-------------------------------------|
D|-------------------------------------|
A|-22222222-------------------44444444-|
E|---------00000000-444444444----------|


Chorus:

G|------------------------------------------------------------------|
D|------------------------------------------------------------------|
A|-2222222---------2222222------44-2222222-----------4----2222222---|
E|--------0-000-44--------0-000------------0-000-4-4----------------|


Bridge

G|----------------------------------------------------------------------|
D|----------------------------------------------------------------------|
A|-22222222----------22222222-4444-2222-22222222-----------2-2-2-2-2-2--|
E|----------00000000-----------------------------00000000---------------|


Outro: Same as Intro


Order of song:
intro
Verse
Chorus
Verse
Chorus
Bridge
Chorus
Outro
            
Hard to play? Try these video lessons and learn fast. | Correct




comments powered by Disqus
↑ Back to top | Tablatures and chords are parodies/interpretations of the original songs. You may use it for private study, scholarship, research or language learning purposes only