» » »

The Changcuters, I Love U Bibeh Tabs (ver.1)

Artists:  A B C D E F G H I J K L M N O P Q R S T U V W X Y Z # 

I Love U Bibeh Tabs (ver.1)

The Changcuters Tabs
 Rating:
3.2/5 (6 votes)
I Love U Bibeh lessons Tabs too difficult? Try these video lessons and learn fast
                Intro  :


    
E|--------12------------------------------------------------------------------------------------|
B|--12s14-----14--12--10-(10)-(10)--------10s12--14--12--12s14-12--12h14-14h15--15-14-12-10-9---|
G|----------------------------------9h11--------------------------------------------------------|
D|----------------------------------------------------------------------------------------------|
A|----------------------------------------------------------------------------------------------|
E|----------------------------------------------------------------------------------------------|

e|---------------------------------------------------------------------------|
B|-------10------10--12s14--12h14--12--10h12--10---10s12--14--12--10---------|
G|--9h11----9h11-------------------------------------------------------------|
D|---------------------------------------------------------------------------|
A|---------------------------------------------------------------------------|
E|---------------------------------------------------------------------------|



Intrelude : (  Guitar 1 )


e|-----------------14-12---------------------------------------------------------------|
B|--15-14-12-------------15-14------------10--13h12-13h12-13h12--10---------10----10---|
G|-----------13-14-------------------9h11---------------------------11-9-11----11------|
D|------------------------------9h11---------------------------------------------------|
A|-------------------------------------------------------------------------------------|
E|-------------------------------------------------------------------------------------|

e|-----------------------------------------------------------------|
B|--15-14-12-14-12-10-12-10----10-12-12s14-12-10--15-14-15-14------|
G|--------------------------11-------------------------------------|
D|-----------------------------------------------------------------|
A|-----------------------------------------------------------------|
E|-----------------------------------------------------------------|

Intrelude : (  Guitar 2  )


e|--------12-----------14-12----12--14h15-14h15-14-12---------------------------------------------|
B|--12s14----14-12-10--------14------------------------14-12------10-(12)-12~~14~~12~~14~~12------|
G|-----------------------------------------------------------9h11---------------------------------|
D|------------------------------------------------------------------------------------------------|
A|------------------------------------------------------------------------------------------------|
E|------------------------------------------------------------------------------------------------|

D|------------------------------------------------------------------------------------------------|
A|--12h14-14s15---14-12-14-12-10-12-10----10--------10-----10--12s14-12h14-12-10h12-10------------|
E|-------------------------------------11----11-9-11----11----------------------------------------|
D|------------------------------------------------------------------------------------------------|
A|------------------------------------------------------------------------------------------------|
E|------------------------------------------------------------------------------------------------|

D|-------------------------------14----17-14---------14----17-14----------------------------------|
A|--(10)-10--(12)-12--(14)-14-15----15-------(15)-15----15-------15---12s14-12-10-12----10--------|
E|-----------------------------------------------------------------------------------11-----------|
D|------------------------------------------------------------------------------------------------|
A|------------------------------------------------------------------------------------------------|
E|------------------------------------------------------------------------------------------------|

D|-------------------------------14----17-14---------14----17-14-----12---9-10-12---9-10-12-------|
A|--(10)-10--(12)-12--(14)-14-15----15-------(15)-15-------------15-------------------------------|
E|------------------------------------------------------------------------------------------------|
D|------------------------------------------------------------------------------------------------|
A|------------------------------------------------------------------------------------------------|
E|------------------------------------------------------------------------------------------------|

Intrelude tidak harus dimainkan 
oleh dua gitar, satu gitar juga bisa tapi lebih enak
pake dua gitar 


Ending :


       A5
e|---------12----------||---5------------------|
B|--12s14------14-12---||---5------------------|
G|---------------------||---6------------------|
D|---------------------||---7------------------|
A|---------------------||---7------------------|
E|---------------------||---5------------------|
            
Submit corrections

comments powered by Disqus
↑ Back to top | The Changcuters Tabs for I Love U Bibeh. Lyrics for acoustic guitar and electric guitar. Tablatures and chords are parodies/interpretations of the original songs. You may use it for private study, scholarship, research or language learning purposes only