>
 >
Bounce

Bounce Guitar Tabs

The Cab - Bounce chords, tabs, tablatures, lyrics

Guitar lessons | Add/correct | Request | Top 50 tabs Artists:  A B C D E F G H I J K L M N O P Q R S T U V W X Y Z 0-9

Bounce Guitar Tabs – The Cab

CD, Sheet music, Poster

Do you like Bounce? Share with your friends now
Bass TabsBass Tabs v2ChordsChords v2TabsUkulele
Alright, so this tab is 100% accurate. Thanks.

Tuning: standard (EADGBe)
Legend: ^( ) - Bend to fret in parenthesis
         *   - Hammer on
         #   - Pull off
         ~   - slide 
         x   - palm mute


Verse 1
e|---x-x-7-------------------------2~16-x-x-x-7----------------------2~16-|
B|---x-x-9-------------------------2~16-x-x-x-9----------------------2~16-|
G|---x-x-9-------------------------2~16-x-x-x-9----------------------2~16-|
D|---x-x-7-------------------------2~16-x-x-x-7----------------------2~16-|x2
A|---x-x-7----4-5---5-4-2---2-4----2~16-x-x-x-7---4-5---5-4-2---2-4--2~16-|
E|---x-x-7----2-3---3-2-0---0-2----2~16-x-x-x-7---2-3---3-2-0---0-2--2~16-| 

Bridge 1
e|--------------------------------------------------------------------------|
B|---------------------------------12----11^(12)-11^(12)-11^(12)-11^(12)-11-|
G|---------------------------12-------12------------------------------------|
D|---2~9-11-12-11#9----11-12----12------------------------------------------|
A|------------------*12-----------------------------------------------------|
E|--------------------------------------------------------------------------|

Chorus
e|---0--0--0-0-0-0--0--0--0-0-0-0--0--0--0-0-0-0--0--0-0--0--0-0-|
B|---0--0--0-0-0-0--0--0--0-0-0-0--0--0--0-0-0-0--3--3-3--0--0-0-|
G|---4--4--4-4-4-4--0--0--0-0-0-0--2--2--2-2-2-2--2--2-2--1--1-1-| x3
D|---0--0--0-0-0-0--0--0--0-0-0-0--2--2--2-2-2-2--0--0-0--2--2-2-|
A|---2--2--2-2-2-2--5--5--5-5-5-5--0--0--0-0-0-0--0--0-0--0--0-0-|
E|------------------3--3--3-3-3-3--------------------------------|

e|---0--0--0-0-0-0--0--0--0-0-0-0---0---------------|
B|---0--0--0-0-0-0--0--0--0-0-0-0---0---------------|
G|---4--4--4-4-4-4--0--0--0-0-0-0---0---------------|
D|---0--0--0-0-0-0--0--0--0-0-0-0---2---------------|
A|---2--2--2-2-2-2--5--5--5-5-5-5---2-------2-------|
E|------------------3--3--3-3-3-3---0---------3-0-2-|
               
                          *let ring*
e|---x-x-7----------------------|
B|---x-x-9----------------------|
G|---x-x-9----------------------|
D|---x-x-7----------------------|
A|---x-x-7----4-5---5-4-2---2-4-|
E|---x-x-7----2-3---3-2-0---0-2-|

Verse 2
e|---7-------------------------2~16-x-x-x-7----------------------2~16-x-x-x|
B|---9-------------------------2~16-x-x-x-9----------------------2~16-x-x-x|
G|---9-------------------------2~16-x-x-x-9----------------------2~16-x-x-x|
D|---7-------------------------2~16-x-x-x-7----------------------2~16-x-x-x|
A|---7----4-5---5-4-2---2-4----2~16-x-x-x-7---4-5---5-4-2---2-4--2~16-x-x-x|
E|---7----2-3---3-2-0---0-2----2~16-x-x-x-7---2-3---3-2-0---0-2--2~16-x-x-x|

e|--14--14--14--X-14~16---14--14--14--x-10~12--15--15--15--x-15~17--14--14---
B|--15--15--15--x-15~17---14--14--14--x-11~13--15--15--15--x-15~17--14--14---
G|--14--14--14--x-14~16---15--15--15--x-12~14--16--16--16--x-16~18--15--15*16
D|--16--16--16--x-16~18---16--16--16--x--------15--15--15--x-15~17--16--16---
A|--14--14--14--x-14~16---14--14--14--x--------17--17--17--x-17~19--14--14---
E|---------------------------------------------15--15--15--x-15~17-----------

e|--------------------------------------------|
B|---17^(19)-17--17-----------------17^(19)---|
G|-------------18--15^(16)-15--16-18-------15-|
D|--------------------------------------------|
A|--------------------------------------------|
E|--------------------------------------------|

Chorus
e|---0--0--0-0-0-0--0--0--0-0-0-0--0--0--0-0-0-0--0--0-0--0--0-0-|
B|---0--0--0-0-0-0--0--0--0-0-0-0--0--0--0-0-0-0--3--3-3--0--0-0-|
G|---4--4--4-4-4-4--0--0--0-0-0-0--2--2--2-2-2-2--2--2-2--1--1-1-| x3
D|---0--0--0-0-0-0--0--0--0-0-0-0--2--2--2-2-2-2--0--0-0--2--2-2-|
A|---2--2--2-2-2-2--5--5--5-5-5-5--0--0--0-0-0-0--0--0-0--0--0-0-|
E|------------------3--3--3-3-3-3--------------------------------|

e|---0--0--0-0-0-0--0--0--0-0-0-0---0-0-0-0-0-0-0-0-0-0-0-0-0-0-0-0-0-|
B|---0--0--0-0-0-0--0--0--0-0-0-0---0-0-0-0-0-0-0-0-0-1-1-1-1-0-0-0-0-|
G|---4--4--4-4-4-4--0--0--0-0-0-0---0-0-0-0-0-0-0-0-0-2-2-2-2-1-1-1-1-|
D|---0--0--0-0-0-0--0--0--0-0-0-0---2-2-2-2-2-2-2-2-2-0-0-0-0-2-2-2-2-|
A|---2--2--2-2-2-2--5--5--5-5-5-5---2-2-2-2-2-2-2-2-2-0-0-0-0-0-0-0-0-|
E|------------------3--3--3-3-3-3---0-0-0-0-0-0-0-0-0-----------------|

Bridge 2 (Drums & Vocals only)

Solo
e|---------------------------------------------------------------------------
B|-----------------------------------0-10-12-0-10-12-0-12-0-12-0-12-0-12-0-12
G|---------------------------------------------------------------------------
D|---------------------------------------------------------------------------
A|---------------------------------------------------------------------------
E|---0-0-0-0-0-0-0-0-2-2-2-2-3-3-3-3-----------------------------------------

e|---------------------------------14-12--14-12--14-12-14^(15)-14------12-14|
B|---0-10-12-0-10-12-0-12-0-12-0-12-----12------12----------------12-12-----|
G|--------------------------------------------------------------------------|
D|--------------------------------------------------------------------------|
A|--------------------------------------------------------------------------|
E|--------------------------------------------------------------------------|

Chorus
e|---0--0--0-0-0-0--0--0--0-0-0-0--0--0--0-0-0-0--0--0-0--0--0-0-|
B|---0--0--0-0-0-0--0--0--0-0-0-0--0--0--0-0-0-0--3--3-3--0--0-0-|
G|---4--4--4-4-4-4--0--0--0-0-0-0--2--2--2-2-2-2--2--2-2--1--1-1-| x3
D|---0--0--0-0-0-0--0--0--0-0-0-0--2--2--2-2-2-2--0--0-0--2--2-2-|
A|---2--2--2-2-2-2--5--5--5-5-5-5--0--0--0-0-0-0--0--0-0--0--0-0-|
E|------------------3--3--3-3-3-3--------------------------------|

e|---0--0--0-0-0-0--0--0--0-0-0-0---0---------------|
B|---0--0--0-0-0-0--0--0--0-0-0-0---0---------------|
G|---4--4--4-4-4-4--0--0--0-0-0-0---0---------------|
D|---0--0--0-0-0-0--0--0--0-0-0-0---2---------------|
A|---2--2--2-2-2-2--5--5--5-5-5-5---2-------2-------|
E|------------------3--3--3-3-3-3---0---------3-0-2-|

END





Comments


Popular The Cab tabs & chords
This City Is Contagious Bass Tabs
Endlessly Chords
Endlessly 3 Chords
I'll Run 2 Chords
Ill Run 3 Chords
Zzzzz Chords
The Pub Intro Tabs
Endlessly Ukulele
Falling Up Ukulele
High Hopes In Velvet Ukulele


Song lyrics



↑ Back to top | Tablatures and chords are parodies/interpretations of the original songs. You may use it for private study, scholarship, research or language learning purposes only
© 2014 AZChords.com Contact us | Privacy policy | DMCA | Add/correct tabs | Request tabs | Top 50 tabs