» » »

Bounce Bass tabs (ver.1)

Artists:  A B C D E F G H I J K L M N O P Q R S T U V W X Y Z # 

Bounce Bass tabs (ver.1)

The Cab
Rating:
5/5 (1 vote)

Hard to play? Try these video lessons and learn fast.
                Band: The Cab

One of my favorite songs by The Cab.  Didn't really like the other bass tab up, so 
my version. It's my first tab, hope you all enjoy it!

Bass comes in at :13

Verse 1
G|-----------------|
D|-----------------|  x4
A|2----------------|
E|--2-3--320--0-2-2|

|-------------|
|-------------|
|-------------|
|3~-----2~----|

Chorus
|-------------------------------|
|-------------------------------|  x3
|22222222----------------5555000|
|--------3333333300000000-------|

|-------------------------------|
|-------------------------------|
|22222222-----------------------|
|--------33333333-0---3202------|

Verse 2
|----------------|
|----------------|
|2---------------|
|--2-3--320--0-2~|

|-----------------|
|-----------------|  x3
|2----------------|
|--2-3--320--0-2-2|

|--------------------------------------------------|
|--------------------------------------------------|  x = Palm Mute
|2X-2X-2X-2X--------------0------------------------|
|-----------0--2X-2X-2X-2X--3X-3X-3X-3X0--2X-2X0-2X|

|-------------|
|-------------|
|-------------|
|3~-----2~----|

Chorus
|-------------------------------|
|-------------------------------|  x3
|22222222----------------5555000|
|--------3333333300000000-------|

|--------------------------------|
|--------------------------------|
|22222222------------------------|
|--------33333333-0-0-0-0-2-2-2~-|


Break - No Bass


Pre-Chorus
|----------------|
|----------------|
|----------------|
|0000000000000000|

|--------------------------------------------------|
|--------------------------------------------------|
|22222222222222220000000000000000------------------|
|--------------------------------33333333333333332X|

Chorus
|-------------------------------|
|-------------------------------|  x3
|22222222----------------5555000|
|--------3333333300000000-------|

|-------------------------------|
|-------------------------------|
|22222222-----------------------|
|--------33333333-0---3202------|
            
Hard to play? Try these video lessons and learn fast. | Correct




comments powered by Disqus
↑ Back to top | Tablatures and chords are parodies/interpretations of the original songs. You may use it for private study, scholarship, research or language learning purposes only