» » »

Owaranai Uta Tabs (ver.1)

Artists:  A B C D E F G H I J K L M N O P Q R S T U V W X Y Z # 

Owaranai Uta Tabs (ver.1)

The Blue Hearts
Rating:
0/5 (0 votes)

Hard to play? Try these video lessons and learn fast.
                owaranai uta


the blue hearts






                                               
e:----------------------------|
B:----------------------------|
G:----------------------------|
D:-7-7-x-x--9-9-x-x--7/--6--4-|
A:-7-7-x-x--7-7-x-x--5/--4--2-|
E:-5-5-x-x--------------------|


  owaranai utao uta wa o...
e:--------------------------------------------------------|
B:--------------------------------------------------------|
G:--------------7-7-7-7-7-7--9-9-9-9-9-9-9----------------|
D:-7-7-7-7-7-7--7-7-7-7-7-7--9-9-9-9-9-9-9--7-7-7-7-7-7---|
A:-7-7-7-7-7-7--5-5-5-5-5-5--7-7-7-7-7-7-7--7-7-7-7-7-7---|
E:-5-5-5-5-5-5------------------------------5-5-5-5-5-5-0-|

     ash*ta niwa       utsuro               yoni
e:--------------------------------------------------|
B:--------------------------------------------------|
G:--------------7-7-7-7-7-7--9-9-9-9-9-9-9----------|
D:-7-7-7-7-7-7--7-7-7-7-7-7--9-9-9-9-9-9-9----------|
A:-7-7-7-7-7-7--5-5-5-5-5-5--7-7-7-7-7-7-7--7-7-9-7-|
E:-5-5-5-5-5-5------------------------------5-5-7-5-|


e:---------------------------|
B:---------------------------|
G:---------------------------|
D:---2-0-----------2-0-------|
A:-0-----4-2-4---0-----4-2-4-|
E:---------------------------|

  verse
  gt1                                       
e:-------------------3--------------------------------------------------------------------|
B:------2--------------2----------------------2------------------------4------------------|
G:--------2------2-------3--------1-------------2----------3-------------4----------1-----|
D:---2------2--0--------------------2------2------2----------4------4------4----------2---|
A:-0---------------------------2------2--0--------------4------4--2--------------2------2-|
E:---------------------------0------------------------2------------------------0----------|

e:------------|
B:------2-----|
G:--------2---|
D:---2------2-|
A:-0----------|
E:------------|

  gt2
e:------------2-2-2-2-2-2----------------------------------------------------------------|
B:-2-2-2-2-2--3-3-3-3-3-3-----------------2-2-2-2-2----------------4-4-4-4-4-------------|
G:-2-2-2-2-2--2-2-2-2-2-2---1-1-1-1-1-1---2-2-2-2-2---3-3-3-3-3-3--4-4-4-4-4---1-1-1-1-1-|
D:-2-2-2-2-2--0-0-0-0-0-0---2-2-2-2-2-2---2-2-2-2-2---4-4-4-4-4-4--4-4-4-4-4---2-2-2-2-2-|
A:-0-0-0-0-0----------------2-2-2-2-2-2---0-0-0-0-0---4-4-4-4-4-4--2-2-2-2-2---2-2-2-2-2-|
E:--------------------------0-0-0-0-0-0---------------2-2-2-2-2-2--------------0-0-0-0-0-|

                                               
e:------------|
B:--2-2-2-2-2-|
G:--2-2-2-2-2-|
D:--2-2-2-2-2-|
A:--0-0-0-0-0-|
E:------------|

  owaranai utao uta wa o...
e:--------------------------------------------------------|
B:--------------------------------------------------------|
G:--------------7-7-7-7-7-7--9-9-9-9-9-9-9----------------|
D:-7-7-7-7-7-7--7-7-7-7-7-7--9-9-9-9-9-9-9--7-7-7-7-7-7---|
A:-7-7-7-7-7-7--5-5-5-5-5-5--7-7-7-7-7-7-7--7-7-7-7-7-7---|
E:-5-5-5-5-5-5------------------------------5-5-5-5-5-5-0-|

     ash*ta niwa       utsuro               yoni
e:--------------------------------------------------|
B:--------------------------------------------------|
G:--------------7-7-7-7-7-7--9-9-9-9-9-9-9----------|
D:-7-7-7-7-7-7--7-7-7-7-7-7--9-9-9-9-9-9-9----------|
A:-7-7-7-7-7-7--5-5-5-5-5-5--7-7-7-7-7-7-7--7-7-9-7-|
E:-5-5-5-5-5-5------------------------------5-5-7-5-|


e:---------------------------|
B:---------------------------|
G:---------------------------|
D:---2-0-----------2-0-------|
A:-0-----4-2-4---0-----4-2-4-|
E:---------------------------|

  verse
  gt1                                       
e:-------------------3--------------------------------------------------------------------|
B:------2--------------2----------------------2------------------------4------------------|
G:--------2------2-------3--------1-------------2----------3-------------4----------1-----|
D:---2------2--0--------------------2------2------2----------4------4------4----------2---|
A:-0---------------------------2------2--0--------------4------4--2--------------2------2-|
E:---------------------------0------------------------2------------------------0----------|

e:------------|
B:------2-----|
G:--------2---|
D:---2------2-|
A:-0----------|
E:------------|

  gt2
e:------------2-2-2-2-2-2----------------------------------------------------------------|
B:-2-2-2-2-2--3-3-3-3-3-3-----------------2-2-2-2-2----------------4-4-4-4-4-------------|
G:-2-2-2-2-2--2-2-2-2-2-2---1-1-1-1-1-1---2-2-2-2-2---3-3-3-3-3-3--4-4-4-4-4---1-1-1-1-1-|
D:-2-2-2-2-2--0-0-0-0-0-0---2-2-2-2-2-2---2-2-2-2-2---4-4-4-4-4-4--4-4-4-4-4---2-2-2-2-2-|
A:-0-0-0-0-0----------------2-2-2-2-2-2---0-0-0-0-0---4-4-4-4-4-4--2-2-2-2-2---2-2-2-2-2-|
E:--------------------------0-0-0-0-0-0---------------2-2-2-2-2-2--------------0-0-0-0-0-|

                                               
e:------------|
B:--2-2-2-2-2-|
G:--2-2-2-2-2-|
D:--2-2-2-2-2-|
A:--0-0-0-0-0-|
E:------------|

  owaranai utao uta wa o...
e:------------------------------------------------------|
B:------------------------------------------------------|
G:--------------7---7--777---9---9---999----------------|
D:-7---7---777--7---7--777---9---9---999----7--7--777---|
A:-7---7---777--5---5--555---7---7---777----7--7--777---|
E:-5---5---555------------------------------5--5--555---|

                      ash*ta niwa  utsuro  yoni
e:------------------------------------------------------|
B:------------------------------------------------------|
G:--------------7---7--777---9---9---999----------------|
D:-7---7---777--7---7--777---9---9---999----7--7--777---|
A:-7---7---777--5---5--555---7---7---777----7--7--777---|
E:-5---5---555------------------------------5--5--555---|


e:-0-0-0-0-0--2-2-2-2-2-2---0-0-0-0-0-0---0-0-0-0-0-|
B:-2-2-2-2-2--3-3-3-3-3-3---0-0-0-0-0-0---2-2-2-2-2-|
G:-2-2-2-2-2--2-2-2-2-2-2---1-1-1-1-1-1---2-2-2-2-2-|
D:-2-2-2-2-2--0-0-0-0-0-0---2-2-2-2-2-2---2-2-2-2-2-|
A:-0-0-0-0-0----------------2-2-2-2-2-2---0-0-0-0-0-|
E:--------------------------0-0-0-0-0-0-------------|


e:-0-0-0-0-0--2-2-2-2-2-2---0-0-0-0-0-0---0-0-0-0-0-|
B:-2-2-2-2-2--3-3-3-3-3-3---0-0-0-0-0-0---2-2-2-2-2-|
G:-2-2-2-2-2--2-2-2-2-2-2---1-1-1-1-1-1---2-2-2-2-2-|
D:-2-2-2-2-2--0-0-0-0-0-0---2-2-2-2-2-2---2-2-2-2-2-|
A:-0-0-0-0-0----------------2-2-2-2-2-2---0-0-0-0-0-|
E:--------------------------0-0-0-0-0-0-------------|


   owaranai utao wa utao...
e:-0-0-0-0-0--2-2-2-2-2-2---0-0-0-0-0-0---0-0-0-0-0-|
B:-2-2-2-2-2--3-3-3-3-3-3---0-0-0-0-0-0---2-2-2-2-2-|
G:-2-2-2-2-2--2-2-2-2-2-2---1-1-1-1-1-1---2-2-2-2-2-|
D:-2-2-2-2-2--0-0-0-0-0-0---2-2-2-2-2-2---2-2-2-2-2-|
A:-0-0-0-0-0----------------2-2-2-2-2-2---0-0-0-0-0-|
E:--------------------------0-0-0-0-0-0-------------|

                            ash*ta niwa utsuro  yoni
e:-0-0-0-0-0--2-2-2-2-2-2---0-----------------------|
B:-2-2-2-2-2--3-3-3-3-3-3---0------------2-2-2-2-2--|
G:-2-2-2-2-2--2-2-2-2-2-2---1------------2-2-2-2-2--|
D:-2-2-2-2-2--0-0-0-0-0-0---2------------2-2-2-2-2--|
A:-0-0-0-0-0----------------2------------0-0-0-0-0--|
E:--------------------------0-----------------------|

  owaranai utao uta wa o...
e:------------------------------------------------------|
B:------------------------------------------------------|
G:--------------7---7--777---9---9---999----------------|
D:-7---7---777--7---7--777---9---9---999----7--7--777---|
A:-7---7---777--5---5--555---7---7---777----7--7--777---|
E:-5---5---555------------------------------5--5--555---|

                      ash*ta niwa  utsuro  yoni
e:------------------------------------------------------|
B:------------------------------------------------------|
G:--------------7---7--777---9---9---999----------------|
D:-7---7---777--7---7--777---9---9---999----7--7--9-7---|
A:-7---7---777--5---5--555---7---7---777----7--7--9-7---|
E:-5---5---555------------------------------5--5--7-5---|

hillo son mex

13/05/09
            
Hard to play? Try these video lessons and learn fast. | Correct




comments powered by Disqus
↑ Back to top | Tablatures and chords are parodies/interpretations of the original songs. You may use it for private study, scholarship, research or language learning purposes only