» » »

The Blue Hearts, Owaranai Uta Bass tabs (ver.1)

Artists:  A B C D E F G H I J K L M N O P Q R S T U V W X Y Z # 

Owaranai Uta Bass tabs (ver.1)

The Blue Hearts Tabs
 Rating:
4/5 (4 votes)
Owaranai Uta lessons Tabs too difficult? Try these video lessons and learn fast
1
                Title : Owarani Uta
Album : The Blue Hearts

bass tab by Sanchir Enkhmend


Intro
G:--------------------------------------------------------------|
D:--------------------------------------------------------------|
A:-----------5---4----------------------------------------------|
E:--5-5--------------7------------------------------------------|   X4


Chorus
G:--------------------------------------------------------------|
D:--------------------------------------------------------------|
A:----------------5--5-5-5-5-5--7--7-7-7-7-5--------------------|
E:--5--5-5-5-5-5------------------------------5--5-5-0/4--------|

G:--------------------------------------------------------------|
D:--------------------------------------------------------------|
A:----------------5--5-5-5-5-5---7--7-7-7-7-7-------------------|
E:--5--5-5-5-5-5--------------------------------5--5-5-5-5-5----|   x2

G:--------------------------------------------------------------|
D:--------------------------------------------------------------|
A:----------------5--5-5-5-5---7--7-7-7-7---5-5----7s12---------|
E:--5--5-5-5-5-5--------------------------------5-5-------------|




G:--------------------------------------------------------------|
D:--------------------------------------------------------------|
A:-------------5--5-5-5--------------5--5-5-5-------------------|
E:--5--5-5-5--------------5--5-5-5------------------------------|



Verse
G:--------------------------------------------------------------|
D:------------------4-4----------6-6----------------------------|
A:-----4-4--7----5-------5----7-------7-------------------------|
E:--5--------------------------------------5--5-5-4-------------|

G:--------------------------------------------------------------|
D:---------------------4----------------------------------------|
A:---------4----2--5-5------7---------------4-4--7--------------|
E:--2--5-5---------------------4-4-7----5-5---------------------|   x2



Chorus
G:--------------------------------------------------------------|
D:--------------------------------------------------------------|
A:----------------5--5-5-5-5-5---7--7-7-7-7-7-------------------|
E:--5--5-5-5-5-5--------------------------------5--5-5-5-5-5----|   x3

G:--------------------------------------------------------------|
D:--------------------------------------------------------------|
A:----------------5--5-5-5-5---7--7-7-7-7---5-5----7s12---------|
E:--5--5-5-5-5-5--------------------------------5-5-------------|




G:--------------------------------------------------------------|
D:--------------------------------------------------------------|
A:-------------5--5-5-5--------------5--5-5-5-------------------|
E:--5--5-5-5--------------5--5-5-5------------------------------|



Verse
G:--------------------------------------------------------------|
D:------------------4-4----------6-6----------------------------|
A:-----4-4--7----5-------5----7-------7-------------------------|
E:--5--------------------------------------5--5-5-4-------------|

G:--------------------------------------------------------------|
D:---------------------4-------6-6------------------------------|
A:---------4----2--5-5------7------7-------4-4--7---------------|
E:--2--5-5------------------------------5-----------------------|



Chorus
G:--------------------------------------------------------------|
D:--------------------------------------------------------------|
A:--------------5-5--5-5-5--7-7--7-7-7--------------------------|
E:--5-5--5-5-5--------------------------5-5--5-5-5--------------|   x4



Starts at 2:31
G:--------------------------------------------------------------|
D:--------------------------------------------------------------|
A:--------------7-------------------7s12------------------------|
E:-------------------------5-5-5-5------------------------------|


Chorus
G:--------------------------------------------------------------|
D:--------------------------------------------------------------|
A:--------------5-5--5-5-5--7-7--7-7-7--------------------------|
E:--5-5--5-5-5--------------------------5-5--5-5-5--------------|   x3

G:--------------------------------------------------------------|
D:--------------------------------------------------------------|
A:--------------5-5--5-5-5--7-7--7-7-7--5-5---------------------|
E:--5-5--5-5-5------------------------------5-5-----------------|   x4
            
Submit corrections

comments powered by Disqus
↑ Back to top | The Blue Hearts Bass for Owaranai Uta. Lyrics for acoustic guitar and electric guitar. 1 Tablatures and chords are parodies/interpretations of the original songs. You may use it for private study, scholarship, research or language learning purposes only