» » »

The Blue Hearts, Linda Linda Bass tabs (ver.1)

Artists:  A B C D E F G H I J K L M N O P Q R S T U V W X Y Z # 

Linda Linda Bass tabs (ver.1)

The Blue Hearts Tabs
Rating:
5/5 (2 votes)
Linda Linda lessons Tabs too difficult? Try these video lessons and learn fast
                Title : Linda Linda
Album : The Blue Hearts

freaking cool song, enjoy..!

bass tab by Sanchir Enkhmend


starts 00:35
G:--------------------------------------------------------------|
D:--------------------------------------------------------------|
A:--3/5---5-5-5-5-5--5-4-3-2------------------------------------|
E:-----------------------------3-3-3-3-3-3---5-5-5-5-5-5--------|   X2


VERSE:
G:--------------------------------------------------------------|
D:--------------------------------------------------------------|
A:--5-5-5-5-5-5---------------2-2-2-2-2-2--3-3-3-3-3-3----------|
E:---------------2-2-2-2-2-2------------------------------------|

G:--------------------------------------------------------------|
D:--------------------------------------------------------------|
A:--------------------------------------------2-3-4-5-----------|
E:--3-3-3-3-3-3-3-3-3-3-3-3--5-5-5-5-5-5-5--5-------------------|

G:--------------------------------------------------------------|
D:--------------------------------------------------------------|
A:--5-5-5-5-5-5---------------2-2-2-2-2-2--3-3-3-3-3-3----------|
E:---------------2-2-2-2-2-2------------------------------------|

G:--------------------------------------------------------------|
D:--------------------------------------------------------------|
A:----------------------------5-5-5-5-5-5-----------------------|
E:--3-3-3-3-3-3--5-5-5-5-5-5---------------0-5-5-5-5-5-5-5------|




CHORUS:
G:--------------------------------------------------------------|
D:--------------------------------------------------------------|
A:--3/5---5-5-5-5-5--5-4-3-2------------------------------------|
E:-----------------------------3-3-3-3-3-3---5-5-5-5-5-5--------|   X2





G:--------------------------------------------------------------|
D:--------------------------------------------------------------|
A:--5-5-5-5-5-5--2-2-2-2-2-2------------------------------------|
E:----------------------------3-3-3-3-3-3--5-5-5-5-5-5----------|

G:--------------------------------------------------------------|
D:--------------------------------------------------------------|
A:--5-5-5-5-5-5--2-2-2-2-2-2------------------------------------|
E:----------------------------3-3-3-3-3-3--5-5-5-5-5-5----------|



VERSE:
G:--------------------------------------------------------------|
D:--------------------------------------------------------------|
A:--3/5-5-5-5-5-5--3/5-5-5-5-5---0/2-2-2-2-2-2--0/2-2-2-2-2-2---|
E:--------------------------------------------------------------|

G:--------------------------------------------------------------|
D:--------------------------------------------------------------|
A:--3/5-5-5-5-5-5--3/5-5-5-5-5------2--5--2-----4--7--4---------|
E:-------------------------------3-----------5------------------|

G:--------------------------------------------------------------|
D:--------------------------------------------------------------|
A:--3/5-5-5-5-5-5--3/5-5-5-5-5---0/2-2-2-2-2-2--0/2-2-2-2-2-2---|
E:--------------------------------------------------------------|

G:--------------------------------------------------------------|
D:----------------------------5--4--2---------------------------|
A:-------------------------------------5------------------------|
E:--3-3-3-3-3-3--5-5-5-5-5-5------------------------------------|



CHORUS:
G:--------------------------------------------------------------|
D:--------------------------------------------------------------|
A:--3/5---5-5-5-5-5--5-4-3-2------------------------------------|
E:-----------------------------3-3-3-3-3-3---5-5-5-5-5-5--------|   X2



VERSE:
G:--------------------------------------------------------------|
D:--------------------------------------------------------------|
A:--5-5-5-5-5-5---------------2-2-2-2-2-2--3-3-3-3-3-3----------|
E:---------------2-2-2-2-2-2------------------------------------|

G:--------------------------------------------------------------|
D:--------------------------------------------------------------|
A:--------------------------------------------------------------|
E:--3-3-3-3-3-3-3-3-3-3-3-3--5-5-5-5-5-5-5--5-5-5-5-5-5---------|

G:--------------------------------------------------------------|
D:--------------------------------------------------------------|
A:--5-5-5-5-5-5---------------2-2-2-2-2-2--3-3-3-3-3-3----------|
E:---------------2-2-2-2-2-2------------------------------------|

G:--------------------------------------------------------------|
D:--------------------------------------------------------------|
A:----------------------------5-5-5-5-5-5--5-5-5-5-5-5----------|
E:--3-3-3-3-3-3--5-5-5-5-5-5------------------------------------|

G:--------------------------------------------------------------|
D:--------------------------------------------------------------|
A:--5-5-5-5-5-5---------------2-2-2-2-2-2--3-3-3-3-3-3----------|
E:---------------2-2-2-2-2-2------------------------------------|

G:--------------------------------------------------------------|
D:--------------------------------------------------------------|
A:--------------------------------------------2-3-4-5-----------|
E:--3-3-3-3-3-3-3-3-3-3-3-3--5-5-5-5-5-5-5--5-------------------|

G:--------------------------------------------------------------|
D:--------------------------------------------------------------|
A:--5-5-5-5-5-5---------------2-2-2-2-2-2--3-3-3-3-3-3----------|
E:---------------2-2-2-2-2-2------------------------------------|

G:--------------------------------------------------------------|
D:--------------------------------------------------------------|
A:----------------------------5-5-5-5-5-5-----------------------|
E:--3-3-3-3-3-3--5-5-5-5-5-5---------------0-5-5-5-5-5-5-5------|


CHORUS:
G:--------------------------------------------------------------|
D:--------------------------------------------------------------|
A:--3/5---5-5-5-5-5--5-4-3-2------------------------------------|
E:-----------------------------3-3-3-3-3-3---5-5-5-5-5-5--------|   X2

G:--------------------------------------------------------------|
D:--------------------------------------------------------------|
A:--5-5-5-5-5-5--5-5-5-5-5-5------------------------------------|
E:-----------------------------3-3-3-3-3-3---5-5-5-5-5-5--------|   X5



G:--------------------------------------------------------------|
D:--------------------------------------------------------------|
A:--5-5-5-5-5-5--2-2-2-2-2-2------------------------------------|
E:----------------------------3-3-3-3-3-3--5-5-5-5-5-5----------|


OUTRO:
G:--------------------------------------------------------------|
D:--------------------------------------------------------------|
A:--5-5---------------------------------------------------------|
E:------4h10-10-10-10-10-10----------------10-------------------|
            

comments powered by Disqus
↑ Back to top | The Blue Hearts Bass for Linda Linda. Lyrics for acoustic guitar and electric guitar. Tablatures and chords are parodies/interpretations of the original songs. You may use it for private study, scholarship, research or language learning purposes only