» » »

The Blue Hearts, Linda Linda Tabs (ver.1)

Artists:  A B C D E F G H I J K L M N O P Q R S T U V W X Y Z # 

Linda Linda Tabs (ver.1)

The Blue Hearts Tabs
Rating:
5/5 (2 votes)
Linda Linda lessons Tabs too difficult? Try these video lessons and learn fast
                linda linda 


the blue hearts








           Do bun ne zu-ni     Mita ini                                         
e:-2--2--2--2--2--2--2--2---2--2--2--2--2--2--2-|
B:-3--3--3--3--3--3--3--3---3--3--3--3--3--3--3-|
G:-2--2--2--2--2--2--2--2---4--4--4--4--4--4--4-|
D:-0--0--0--0--0--0--0--0---4--4--4--4--4--4--4-|
A:-0------------------------2--2--2--2--2--2--2-|
E:----------------------------------------------|

           Utsukushiku      nari         tai
e:-2--2--2--2--2--2--2--2---3--3--3--3-----------------|
B:-3--3--3--3--3--3--3--3---3--3--3--3---2--2--2--2--2-|
G:-2--2--2--2--2--2--2--2---0--0--0--0---2--2--2--2--2-|
D:-0--0--0--0--0--0--0--0---0--0--0--0---2--2--2--2--2-|
A:-0------------------------2--2--2--2---0--0--0--0--0-|
E:--------------------------3--3--3--3-----------------|

           Sya shin niwa     utsuranai
e:-2--2--2--2--2--2--2--2---2--2--2--2--2--2--2-|
B:-3--3--3--3--3--3--3--3---3--3--3--3--3--3--3-|
G:-2--2--2--2--2--2--2--2---4--4--4--4--4--4--4-|
D:-0--0--0--0--0--0--0--0---4--4--4--4--4--4--4-|
A:-0------------------------2--2--2--2--2--2--2-|
E:----------------------------------------------|

            Utsuku shisa         ga aru   kara 
e:-3--3--3--3--3------------------------------2----|
B:-3--3--3--3--3--2--2--2--2--2--0------------3----|
G:-0--0--0--0--0--2--2--2--2--2--0------------2----|
D:-0--0--0--0--0--2--2--2--2--2--0--5--4--2---0----|
A:-2--2--2--2--2--0--0--0--0--0--0--5--4--2--------|
E:-3--3--3--3--3--------------------3--2--0--------|

  chorus:
   linda linda         linda linda       lindaaaa
e:-2--2--2--2--2--2--2--2---3--3--3--3-----------------|
B:-3--3--3--3--3--3--3--3---3--3--3--3---2--2--2--2--2-|
G:-2--2--2--2--2--2--2--2---0--0--0--0---2--2--2--2--2-|
D:-0--0--0--0--0--0--0--0---0--0--0--0---2--2--2--2--2-|
A:-0------------------------2--2--2--2---0--0--0--0--0-|
E:--------------------------3--3--3--3-----------------|

   linda linda         linda linda       lindaaaa
e:-2--2--2--2--2--2--2--2---3--3--3--3-----------------|
B:-3--3--3--3--3--3--3--3---3--3--3--3---2--2--2--2--2-|
G:-2--2--2--2--2--2--2--2---0--0--0--0---2--2--2--2--2-|
D:-0--0--0--0--0--0--0--0---0--0--0--0---2--2--2--2--2-|
A:-0------------------------2--2--2--2---0--0--0--0--0-|
E:--------------------------3--3--3--3-----------------|

    Moshi 
e:----------|
B:-2--2--2--|
G:-2--2--2--|
D:-2--2--2--|
A:-0--0--0--|
E:----------|

   mo         Boku ga              itsuka           Kimi to
e:-2--2--2--2--2---2--2--2--2--2--------------------------------------|
B:-3--3--3--3--3---2--2--2--2--2---3--3--3--3--3----2--2--2--2--2-----|
G:-2--2--2--2--2---3--3--3--3--3---4--4--4--4--4----2--2--2--2--2-----|
D:-0--0--0--0--0---4--4--4--4--4---4--4--4--4--4----2--2--2--2--2-----|
A:-----------------4--4--4--4--4---2--2--2--2--2----0--0--0--0--0-----|
E:-----------------2--2--2--2--2--------------------------------------|

    deai hanshi              aunara
e:-3--3--3--3--3--3--3--3---------------------|
B:-3--3--3--3--3--3--3--3----2--2--2--2--2--2-|
G:-0--0--0--0--0--0--0--0----2--2--2--2--2--2-|
D:-0--0--0--0--0--0--0--0----2--2--2--2--2--2-|
A:-2--2--2--2--2--2--2--2----0--0--0--0--0--0-|
E:-3--3--3--3--3--3--3--3---------------------|

    Sonna       tokiwa            do ka            Ai no
e:-2--2--2--2--2---2--2--2--2--2--------------------------------------|
B:-3--3--3--3--3---2--2--2--2--2---3--3--3--3--3----2--2--2--2--2-----|
G:-2--2--2--2--2---3--3--3--3--3---4--4--4--4--4----2--2--2--2--2-----|
D:-0--0--0--0--0---4--4--4--4--4---4--4--4--4--4----2--2--2--2--2-----|
A:-----------------4--4--4--4--4---2--2--2--2--2----0--0--0--0--0-----|
E:-----------------2--2--2--2--2--------------------------------------|

   Imi wo              sh*t-te                 kuda sai
e:-3--3--3--3--3--3--3--3-----------------------2--2--2--2--2--222222-|
B:-3--3--3--3--3--3--3--3----2--2--2--2--2--2---3--3--3--3--3--333333-|
G:-0--0--0--0--0--0--0--0----2--2--2--2--2--2---2--2--2--2--2--222222-|
D:-0--0--0--0--0--0--0--0----2--2--2--2--2--2---0--0--0--0--0--000000-|
A:-2--2--2--2--2--2--2--2----0--0--0--0--0--0-------------------------|
E:-3--3--3--3--3--3--3--3---------------------------------------------|

  chorus:
   linda linda         linda linda       lindaaaa
e:-2--2--2--2--2--2--2--2---3--3--3--3-----------------|
B:-3--3--3--3--3--3--3--3---3--3--3--3---2--2--2--2--2-|
G:-2--2--2--2--2--2--2--2---0--0--0--0---2--2--2--2--2-|
D:-0--0--0--0--0--0--0--0---0--0--0--0---2--2--2--2--2-|
A:-0------------------------2--2--2--2---0--0--0--0--0-|
E:--------------------------3--3--3--3-----------------|

   linda linda         linda linda       lindaaaa
e:-2--2--2--2--2--2--2--2---3--3--3--3-----------------|
B:-3--3--3--3--3--3--3--3---3--3--3--3---2--2--2--2--2-|
G:-2--2--2--2--2--2--2--2---0--0--0--0---2--2--2--2--2-|
D:-0--0--0--0--0--0--0--0---0--0--0--0---2--2--2--2--2-|
A:-0------------------------2--2--2--2---0--0--0--0--0-|
E:--------------------------3--3--3--3-----------------|

                                                     x2
e:-2--2--2--2--2--2--2--2---3--3--3--3-----------------|
B:-3--3--3--3--3--3--3--3---3--3--3--3---2--2--2--2--2-|
G:-2--2--2--2--2--2--2--2---0--0--0--0---2--2--2--2--2-|
D:-0--0--0--0--0--0--0--0---0--0--0--0---2--2--2--2--2-|
A:-0------------------------2--2--2--2---0--0--0--0--0-|
E:--------------------------3--3--3--3-----------------|


          Do bun ne zu-ni     Mita ini                                         
e:-2--2--2--2--2--2--2--2---2--2--2--2--2--2--2-|
B:-3--3--3--3--3--3--3--3---3--3--3--3--3--3--3-|
G:-2--2--2--2--2--2--2--2---4--4--4--4--4--4--4-|
D:-0--0--0--0--0--0--0--0---4--4--4--4--4--4--4-|
A:-0------------------------2--2--2--2--2--2--2-|
E:----------------------------------------------|

           Dare yorimo      yasa         shii
e:-2--2--2--2--2--2--2--2---3--3--3--3-----------------|
B:-3--3--3--3--3--3--3--3---3--3--3--3---2--2--2--2--2-|
G:-2--2--2--2--2--2--2--2---0--0--0--0---2--2--2--2--2-|
D:-0--0--0--0--0--0--0--0---0--0--0--0---2--2--2--2--2-|
A:-0------------------------2--2--2--2---0--0--0--0--0-|
E:--------------------------3--3--3--3-----------------|

           Do bun ne zu-ni     Mita ini  
e:-2--2--2--2--2--2--2--2---2--2--2--2--2--2--2-|
B:-3--3--3--3--3--3--3--3---3--3--3--3--3--3--3-|
G:-2--2--2--2--2--2--2--2---4--4--4--4--4--4--4-|
D:-0--0--0--0--0--0--0--0---4--4--4--4--4--4--4-|
A:-0------------------------2--2--2--2--2--2--2-|
E:----------------------------------------------|

            Na niyouimo          Ata ta    kaku 
e:-3--3--3--3--3------------------------------2----|
B:-3--3--3--3--3--2--2--2--2--2--0------------3----|
G:-0--0--0--0--0--2--2--2--2--2--0------------2----|
D:-0--0--0--0--0--2--2--2--2--2--0--5--4--2---0----|
A:-2--2--2--2--2--0--0--0--0--0--0--5--4--2--------|
E:-3--3--3--3--3--------------------3--2--0--------|

  chorus:
   linda linda         linda linda       lindaaaa
e:-2--2--2--2--2--2--2--2---3--3--3--3-----------------|
B:-3--3--3--3--3--3--3--3---3--3--3--3---2--2--2--2--2-|
G:-2--2--2--2--2--2--2--2---0--0--0--0---2--2--2--2--2-|
D:-0--0--0--0--0--0--0--0---0--0--0--0---2--2--2--2--2-|
A:-0------------------------2--2--2--2---0--0--0--0--0-|
E:--------------------------3--3--3--3-----------------|

   linda linda         linda linda       lindaaaa
e:-2--2--2--2--2--2--2--2---3--3--3--3-----------------|
B:-3--3--3--3--3--3--3--3---3--3--3--3---2--2--2--2--2-|
G:-2--2--2--2--2--2--2--2---0--0--0--0---2--2--2--2--2-|
D:-0--0--0--0--0--0--0--0---0--0--0--0---2--2--2--2--2-|
A:-0------------------------2--2--2--2---0--0--0--0--0-|
E:--------------------------3--3--3--3-----------------|

    Moshi 
e:----------|
B:-2--2--2--|
G:-2--2--2--|
D:-2--2--2--|
A:-0--0--0--|
E:----------|

   mo         Boku ga              itsuka           Kimi to
e:-2--2--2--2--2---2--2--2--2--2--------------------------------------|
B:-3--3--3--3--3---2--2--2--2--2---3--3--3--3--3----2--2--2--2--2-----|
G:-2--2--2--2--2---3--3--3--3--3---4--4--4--4--4----2--2--2--2--2-----|
D:-0--0--0--0--0---4--4--4--4--4---4--4--4--4--4----2--2--2--2--2-----|
A:-----------------4--4--4--4--4---2--2--2--2--2----0--0--0--0--0-----|
E:-----------------2--2--2--2--2--------------------------------------|

    deai hanshi              aunara
e:-3--3--3--3--3--3--3--3---------------------|
B:-3--3--3--3--3--3--3--3----2--2--2--2--2--2-|
G:-0--0--0--0--0--0--0--0----2--2--2--2--2--2-|
D:-0--0--0--0--0--0--0--0----2--2--2--2--2--2-|
A:-2--2--2--2--2--2--2--2----0--0--0--0--0--0-|
E:-3--3--3--3--3--3--3--3---------------------|

    Sonna       tokiwa            do ka            Ai no
e:-2--2--2--2--2---2--2--2--2--2--------------------------------------|
B:-3--3--3--3--3---2--2--2--2--2---3--3--3--3--3----2--2--2--2--2-----|
G:-2--2--2--2--2---3--3--3--3--3---4--4--4--4--4----2--2--2--2--2-----|
D:-0--0--0--0--0---4--4--4--4--4---4--4--4--4--4----2--2--2--2--2-----|
A:-----------------4--4--4--4--4---2--2--2--2--2----0--0--0--0--0-----|
E:-----------------2--2--2--2--2--------------------------------------|

   Imi wo              sh*t-te                 kuda sai
e:-3--3--3--3--3--3--3--3-----------------------2--2--2--2--2--2--2--2--2--2--2-|
B:-3--3--3--3--3--3--3--3----2--2--2--2--2--2---3--3--3--3--3--3--3--3--3--3--3-|
G:-0--0--0--0--0--0--0--0----2--2--2--2--2--2---2--2--2--2--2--2--2--2--2--2--2-|
D:-0--0--0--0--0--0--0--0----2--2--2--2--2--2---0--0--0--0--0--0--0--0--0--0--0-|
A:-2--2--2--2--2--2--2--2----0--0--0--0--0--0-----------------------------------|
E:-3--3--3--3--3--3--3--3-------------------------------------------------------|


   Aija na kutemo Koja na kutemo
e:-2--2--2--2--2---2--2--2--2--2--------------------------------------|
B:-3--3--3--3--3---2--2--2--2--2---3--3--3--3--3----2--2--2--2--2-----|
G:-2--2--2--2--2---3--3--3--3--3---4--4--4--4--4----2--2--2--2--2-----|
D:-0--0--0--0--0---4--4--4--4--4---4--4--4--4--4----2--2--2--2--2-----|
A:-----------------4--4--4--4--4---2--2--2--2--2----0--0--0--0--0-----|
E:-----------------2--2--2--2--2--------------------------------------|

    Kimi wo hanashi wa shi na i
e:-3--3--3--3--3--3--3--3---------------------|
B:-3--3--3--3--3--3--3--3----2--2--2--2--2--2-|
G:-0--0--0--0--0--0--0--0----2--2--2--2--2--2-|
D:-0--0--0--0--0--0--0--0----2--2--2--2--2--2-|
A:-2--2--2--2--2--2--2--2----0--0--0--0--0--0-|
E:-3--3--3--3--3--3--3--3---------------------|

    Kesh*te makenai             Tsuyoi chikara wo
e:-2--2--2--2--2---2--2--2--2--2--------------------------------------|
B:-3--3--3--3--3---2--2--2--2--2---3--3--3--3--3----2--2--2--2--2-----|
G:-2--2--2--2--2---3--3--3--3--3---4--4--4--4--4----2--2--2--2--2-----|
D:-0--0--0--0--0---4--4--4--4--4---4--4--4--4--4----2--2--2--2--2-----|
A:-----------------4--4--4--4--4---2--2--2--2--2----0--0--0--0--0-----|
E:-----------------2--2--2--2--2--------------------------------------|

   Boku wa hito su dake motsu
e:-3--3--3--3--3--3--3--3-----------------------2--2--2--2--2--222222-|
B:-3--3--3--3--3--3--3--3----2--2--2--2--2--2---3--3--3--3--3--333333-|
G:-0--0--0--0--0--0--0--0----2--2--2--2--2--2---2--2--2--2--2--222222-|
D:-0--0--0--0--0--0--0--0----2--2--2--2--2--2---0--0--0--0--0--000000-|
A:-2--2--2--2--2--2--2--2----0--0--0--0--0--0-------------------------|
E:-3--3--3--3--3--3--3--3---------------------------------------------|

  chorus:
   linda linda         linda linda       lindaaaa
e:-2--2--2--2--2--2--2--2---3--3--3--3-----------------|
B:-3--3--3--3--3--3--3--3---3--3--3--3---2--2--2--2--2-|
G:-2--2--2--2--2--2--2--2---0--0--0--0---2--2--2--2--2-|
D:-0--0--0--0--0--0--0--0---0--0--0--0---2--2--2--2--2-|
A:-0------------------------2--2--2--2---0--0--0--0--0-|
E:--------------------------3--3--3--3-----------------|

   linda linda         linda linda       lindaaaa
e:-2--2--2--2--2--2--2--2---3--3--3--3-----------------|
B:-3--3--3--3--3--3--3--3---3--3--3--3---2--2--2--2--2-|
G:-2--2--2--2--2--2--2--2---0--0--0--0---2--2--2--2--2-|
D:-0--0--0--0--0--0--0--0---0--0--0--0---2--2--2--2--2-|
A:-0------------------------2--2--2--2---0--0--0--0--0-|
E:--------------------------3--3--3--3-----------------|

                                                     
e:-2--2--2--2--2--2--2--2---3--3--3--3-----------------|
B:-3--3--3--3--3--3--3--3---3--3--3--3---2--2--2--2--2-|
G:-2--2--2--2--2--2--2--2---0--0--0--0---2--2--2--2--2-|
D:-0--0--0--0--0--0--0--0---0--0--0--0---2--2--2--2--2-|
A:-0------------------------2--2--2--2---0--0--0--0--0-|
E:--------------------------3--3--3--3-----------------|


e:-2--2--2--2--2--2--2--2--2--2--2---------2----|
B:-3--3--3--3--3--3--3--3--3--3--3---------3----|
G:-2--2--2--2--2--2--2--2--2--2--2---------2----|
D:-0--0--0--0--0--0--0--0--0--0--0---------0----|
A:----------------------------------------------|
E:----------------------------------------------|


hillo son mex

13/05/09
            
Submit corrections

comments powered by Disqus
↑ Back to top | The Blue Hearts Tabs for Linda Linda. Lyrics for acoustic guitar and electric guitar. Tablatures and chords are parodies/interpretations of the original songs. You may use it for private study, scholarship, research or language learning purposes only