» » »

The Blue Hearts, Boku No Migite Tabs (ver.1)

Artists:  A B C D E F G H I J K L M N O P Q R S T U V W X Y Z # 

Boku No Migite Tabs (ver.1)

The Blue Hearts Tabs
Rating:
0/5 (0 votes)
Boku No Migite lessons Tabs too difficult? Try these video lessons and learn fast
                boku no migite


the blue hearts








                                               
e:-2--------------2----------------3--------------0---------------|
B:-3--------------2----------------3--------------2---------------|
G:-2--------------3----------------0--------------2---------------|
D:-0--------------4----------------0--------------2---------------|
A:-0--------------4----------------2--------------0---------------|
E:----------------2----------------3------------------------------|


e:-2-2-2-2-2-2-2--2-2-2-2-2-2-2-2--3-3-3-3-3-3-3--0-0-0-0-0-0-0-0-|
B:-3-3-3-3-3-3-3--2-2-2-2-2-2-2-2--3-3-3-3-3-3-3--2-2-2-2-2-2-2-2-|
G:-2-2-2-2-2-2-2--3-3-3-3-3-3-3-3--0-0-0-0-0-0-0--2-2-2-2-2-2-2-2-|
D:-0-0-0-0-0-0-0--4-4-4-4-4-4-4-4--0-0-0-0-0-0-0--2-2-2-2-2-2-2-2-|
A:----------------4-4-4-4-4-4-4-4--2-2-2-2-2-2-2--0-0-0-0-0-0-0-0-|
E:----------------2-2-2-2-2-2-2-2--3-3-3-3-3-3-3------------------|

  verse
e:-2-2-2-2-2-2-2--2-2-2-2-2-2-2-2--3-3-3-3-3-3-3--0-0-0-0-0-0-0-0-|
B:-3-3-3-3-3-3-3--2-2-2-2-2-2-2-2--3-3-3-3-3-3-3--2-2-2-2-2-2-2-2-|
G:-2-2-2-2-2-2-2--3-3-3-3-3-3-3-3--0-0-0-0-0-0-0--2-2-2-2-2-2-2-2-|
D:-0-0-0-0-0-0-0--4-4-4-4-4-4-4-4--0-0-0-0-0-0-0--2-2-2-2-2-2-2-2-|
A:----------------4-4-4-4-4-4-4-4--2-2-2-2-2-2-2--0-0-0-0-0-0-0-0-|
E:----------------2-2-2-2-2-2-2-2--3-3-3-3-3-3-3------------------|

   mita koto mo...
e:-3----------0----------2-----------2---|
B:-3----------2----------2-----------3---|
G:-0----------2----------3-----------2---|
D:-0----------2----------4-----------0---|
A:-2----------0----------4---------------|
E:-3---------------------2---------------|

e:-3----------0--------2--2--2-2-2-|
B:-3----------2--------3--3--3-3-3-|
G:-0----------2--------2--2--2-2-2-|
D:-0----------2--------0--0--0-0-0-|
A:-2----------0--------------------|
E:-3-------------------------------|

   jirita koto mo...                                                                 dakara
e:-3-3-3-3-3-3-3--0-0-0-0-0-0-0-0--2-2-2-2-2-2-2-2--2-2-2-2-2-2-2-2--3-3-3-3-3-3-3-3-----|
B:-3-3-3-3-3-3-3--2-2-2-2-2-2-2-2--2-2-2-2-2-2-2-2--3-3-3-3-3-3-3-3--3-3-3-3-3-3-3-3--2--|
G:-0-0-0-0-0-0-0--2-2-2-2-2-2-2-2--3-3-3-3-3-3-3-3--4-4-4-4-4-4-4-4--0-0-0-0-0-0-0-0--2--|
D:-0-0-0-0-0-0-0--2-2-2-2-2-2-2-2--4-4-4-4-4-4-4-4--4-4-4-4-4-4-4-4--0-0-0-0-0-0-0-0--2--|
A:-2-2-2-2-2-2-2--0-0-0-0-0-0-0-0--4-4-4-4-4-4-4-4--2-2-2-2-2-2-2-2--2-2-2-2-2-2-2-2--0--|
E:-3-3-3-3-3-3-3-------------------2-2-2-2-2-2-2-2-------------------3-3-3-3-3-3-3-3-----|

  verse
e:-2-2-2-2-2-2-2--2-2-2-2-2-2-2-2--3-3-3-3-3-3-3--0-0-0-0-0-0-0-0-|
B:-3-3-3-3-3-3-3--2-2-2-2-2-2-2-2--3-3-3-3-3-3-3--2-2-2-2-2-2-2-2-|
G:-2-2-2-2-2-2-2--3-3-3-3-3-3-3-3--0-0-0-0-0-0-0--2-2-2-2-2-2-2-2-|
D:-0-0-0-0-0-0-0--4-4-4-4-4-4-4-4--0-0-0-0-0-0-0--2-2-2-2-2-2-2-2-|
A:----------------4-4-4-4-4-4-4-4--2-2-2-2-2-2-2--0-0-0-0-0-0-0-0-|
E:----------------2-2-2-2-2-2-2-2--3-3-3-3-3-3-3------------------|


   mita koto mo...
e:-3----------0----------2-----------2---|
B:-3----------2----------2-----------3---|
G:-0----------2----------3-----------2---|
D:-0----------2----------4-----------0---|
A:-2----------0----------4---------------|
E:-3---------------------2---------------|

e:-3----------0--------2--2--2-2-2-|
B:-3----------2--------3--3--3-3-3-|
G:-0----------2--------2--2--2-2-2-|
D:-0----------2--------0--0--0-0-0-|
A:-2----------0--------------------|
E:-3-------------------------------|

   jirita koto mo...                                                                 dakara
e:-3-3-3-3-3-3-3--0-0-0-0-0-0-0-0--2-2-2-2-2-2-2-2--2-2-2-2-2-2-2-2--3-3-3-3-3-3-3-3-----|
B:-3-3-3-3-3-3-3--2-2-2-2-2-2-2-2--2-2-2-2-2-2-2-2--3-3-3-3-3-3-3-3--3-3-3-3-3-3-3-3--2--|
G:-0-0-0-0-0-0-0--2-2-2-2-2-2-2-2--3-3-3-3-3-3-3-3--4-4-4-4-4-4-4-4--0-0-0-0-0-0-0-0--2--|
D:-0-0-0-0-0-0-0--2-2-2-2-2-2-2-2--4-4-4-4-4-4-4-4--4-4-4-4-4-4-4-4--0-0-0-0-0-0-0-0--2--|
A:-2-2-2-2-2-2-2--0-0-0-0-0-0-0-0--4-4-4-4-4-4-4-4--2-2-2-2-2-2-2-2--2-2-2-2-2-2-2-2--0--|
E:-3-3-3-3-3-3-3-------------------2-2-2-2-2-2-2-2-------------------3-3-3-3-3-3-3-3-----|

  verse
e:-2-2-2-2-2-2-2--2-2-2-2-2-2-2-2--3-3-3-3-3-3-3--0-0-0-0-0-0-0-0-|
B:-3-3-3-3-3-3-3--2-2-2-2-2-2-2-2--3-3-3-3-3-3-3--2-2-2-2-2-2-2-2-|
G:-2-2-2-2-2-2-2--3-3-3-3-3-3-3-3--0-0-0-0-0-0-0--2-2-2-2-2-2-2-2-|
D:-0-0-0-0-0-0-0--4-4-4-4-4-4-4-4--0-0-0-0-0-0-0--2-2-2-2-2-2-2-2-|
A:----------------4-4-4-4-4-4-4-4--2-2-2-2-2-2-2--0-0-0-0-0-0-0-0-|
E:----------------2-2-2-2-2-2-2-2--3-3-3-3-3-3-3------------------|


e:-2-2-2-2-2-2-2--2-2-2-2-2-2-2-2--3-3-3-3-3-3-3--0-0-0-0-0-0-0-0-|
B:-3-3-3-3-3-3-3--3-3-3-3-3-3-3-3--3-3-3-3-3-3-3--2-2-2-2-2-2-2-2-|
G:-2-2-2-2-2-2-2--4-4-4-4-4-4-4-4--0-0-0-0-0-0-0--2-2-2-2-2-2-2-2-|
D:-0-0-0-0-0-0-0--4-4-4-4-4-4-4-4--0-0-0-0-0-0-0--2-2-2-2-2-2-2-2-|
A:----------------2-2-2-2-2-2-2-2--2-2-2-2-2-2-2--0-0-0-0-0-0-0-0-|
E:---------------------------------3-3-3-3-3-3-3------------------|


e:-2--------------0----------------3--------------0---------------|
B:-3--------------2----------------3--------------2---------------|
G:-2--------------2----------------0--------------2---------------|
D:-0--------------2----------------0--------------2---------------|
A:-0--------------0----------------2--------------0---------------|
E:---------------------------------3------------------------------|


e:-2----------------------------------|
B:-3----------------------------------|
G:-2----------------------------------|
D:-0----------------------------------|
A:-0----------------------------------|
E:------------------------------------|

hillo son mex

13/05/09


tomacco theme

the simpsons

                                               
eb:-----------------------------------|
Bb:-------------3-3-------------------|
Gb:------2-4-2--2-2-------2-4-2--2-2--|
Db:-2-4---------0-0--2-4---------2-2--|
Ab:------------------------------0-0--|
Eb:-----------------------------------|

eb:---------------------------------------|
Bb:-----------------3-5-3-------------3-3-|
Gb:------2-4-2--2-4--------4p2--------2-2-|
Db:-2-4------------------------4p2----0-0-|
Ab:--------------------------------5------|
Eb:---------------------------------------|

eb:-----------------|
Bb:---------------3-|
Gb:-4p2--------2--2-|
Db:-----4p2----2--0-|
Ab:---------5--0----|
Eb:-----------------|

hillo son mex

09/04/09
            

comments powered by Disqus
↑ Back to top | The Blue Hearts Tabs for Boku No Migite. Lyrics for acoustic guitar and electric guitar. Tablatures and chords are parodies/interpretations of the original songs. You may use it for private study, scholarship, research or language learning purposes only