» » »

The Blue Hearts, Boku No Migite Bass tabs (ver.1)

Artists:  A B C D E F G H I J K L M N O P Q R S T U V W X Y Z # 

Boku No Migite Bass tabs (ver.1)

The Blue Hearts Tabs
Rating:
0/5 (0 votes)
Boku No Migite lessons Tabs too difficult? Try these video lessons and learn fast
                Title : Boku no Migite
Album : Train Train

bass tab by Sanchir Enkhmend



starts at 00:13

Intro
G:--------------------------------------------------------------|
D:--------------------------------------------------------------|
A:---------------------------2--2-2-2-2--2--2-2-2-2-------------|
E:-5s3--3-3-3-3--3--3-3-3-3-------------------------------------|

G:--------------------------------------------------------------|
D:--------------------------------------------------------------|
A:-3--3-3-3-3--5--5-5-5-5---------------------------------------|
E:-------------------------3--3-3-3-3--3--3-3-3-3---------------|


Verse
G:--------------------------------------------------------------|
D:--------------------------------------------------------------|
A:---------------------------2--2-2-2-2--2--2-2-2-2-------------|
E:-3--3-3-3-3--3--3-3-3-3---------------------------------------|

G:--------------------------------------------------------------|
D:--------------------------------------------------------------|
A:-3--3-3-3-3--3--3-3-3-3--------------5--5-5-5-5---------------|
E:-------------------------3--3-3-3-3---------------------------|

G:--------------------------------------------------------------|
D:--------------------------------------------------------------|
A:---------------------------2--2-2-2-2--2--2-2-2-2-------------|
E:-3--3-3-3-3--3--3-3-3-3---------------------------------------|

G:--------------------------------------------------------------|
D:--------------------------------------------------------------|
A:-3--3-3-3-3--5--5-5-5-5---------------------------------------|
E:-------------------------3--3-3-3-3--3--3-3-3-3---------------|  x2


Chorus
G:--------------------------------------------------------------|
D:----------------------------------------2---------------------|
A:-3-----------5-----------2------------------------------------|
E:--------------------------------------------------------------|

G:--------------------------------------------------------------|
D:--------------------------------------------------------------|
A:-3-----------5-----------------------------------2------------|
E:-------------------------3------3-------3--3--5---------------|

G:--------------------------------------------------------------|
D:-------------------------------------2--2-2-2-2---------------|
A:-3--3-3-3-3--5--5-5-5-5--2--2-2-2-2---------------------------|
E:--------------------------------------------------------------|

G:--------------------------------------------------------------|
D:--------------------------------------------------------------|
A:-3--3-3-3-3--3--3-3-3-3--5------------------------------------|
E:--------------------------------------------------------------|





G:--------------------------------------------------------------|
D:--------------------------------------------------------------|
A:---------------------------2--2-2-2-2--2--2-2-2-2-------------|
E:-5s3--3-3-3-3--3--3-3-3-3-------------------------------------|

G:--------------------------------------------------------------|
D:--------------------------------------------------------------|
A:-3--3-3-3-3--5--5-5-5-5---------------------------------------|
E:-------------------------3--3-3-3-3--3--3-3-3-3---------------|

G:--------------------------------------------------------------|
D:--------------------------------------------------------------|
A:-3-----------------------3------------------------------------|
E:--------------------------------------------------------------|

G:--------------------------------------------------------------|
D:--------------------------------------------------------------|
A:-3-----------------------3------------------------------------|
E:--------------------------------------------------------------|


Verse
G:--------------------------------------------------------------|
D:--------------------------------------------------------------|
A:---------------------------2--2-2-2-2--2--2-2-2-2-------------|
E:-5s3--3-3-3-3--3--3-3-3-3-------------------------------------|

G:--------------------------------------------------------------|
D:--------------------------------------------------------------|
A:-3--3-3-3-3--3--3-3-3-3--------------5--5-5-5-5---------------|
E:-------------------------3--3-3-3-3---------------------------|

G:--------------------------------------------------------------|
D:--------------------------------------------------------------|
A:---------------------------2--2-2-2-2--2--2-2-2-2-------------|
E:-3--3-3-3-3--3--3-3-3-3---------------------------------------|

G:--------------------------------------------------------------|
D:--------------------------------------------------------------|
A:-3--3-3-3-3--5--5-5-5-5---------------------------------------|
E:-------------------------3--3-3-3-3--3--3-3-3-3---------------|

G:--------------------------------------------------------------|
D:--------------------------------------------------------------|
A:---------------------------2--2-2-2-2--2--2-2-2-2-------------|
E:-3--3-3-3-3--3--3-3-3-3---------------------------------------|

G:--------------------------------------------------------------|
D:--------------------------------------------------------------|
A:-3--3-3-3-3--3--3-3-3-3--------------5--5-5-5-5---------------|
E:-------------------------3--3-3-3-3---------------------------|

G:--------------------------------------------------------------|
D:--------------------------------------------------------------|
A:---------------------------2--2-2-2-2--2--2-2-2-2-------------|
E:-3--3-3-3-3--3--3-3-3-3---------------------------------------|

G:--------------------------------------------------------------|
D:--------------------------------------------------------------|
A:-3--3-3-3-3--5--5-5-5-5---------------------------------------|
E:-------------------------3--3-3-3-3--3--3-3-3-3---------------|


Chorus
G:--------------------------------------------------------------|
D:----------------------------------------2---------------------|
A:-3-----------5-----------2------------------------------------|
E:--------------------------------------------------------------|

G:--------------------------------------------------------------|
D:--------------------------------------------------------------|
A:-3-----------5-----------------------------------2------------|
E:-------------------------3------3-------3--3--5---------------|

G:--------------------------------------------------------------|
D:-------------------------------------2--2-2-2-2---------------|
A:-3--3-3-3-3--5--5-5-5-5--2--2-2-2-2---------------------------|
E:--------------------------------------------------------------|

G:--------------------------------------------------------------|
D:--------------------------------------------------------------|
A:-3--3-3-3-3--3--3-3-3-3--5------------------------------------|
E:--------------------------------------------------------------|


Outro
G:--------------------------------------------------------------|
D:--------------------------------------------------------------|
A:---------------------------2--2-2-2-2--2--2-2-2-2-------------|
E:-5s3--3-3-3-3--3--3-3-3-3-------------------------------------|

G:--------------------------------------------------------------|
D:-------------------------------------2--2-2-2-2---------------|
A:-3--3-3-3-3--5--5-5-5-5---------------------------------------|
E:-------------------------3--3-3-3-3---------------------------|

G:--------------------------------------------------------------|
D:-------------------------2------------------------------------|
A:-3--3-3-3-3--5--5-5-5-5--------5-----3---3--5---5-------------|
E:---------------------------------------3------5---------------|

G:--------------------------------------------------------------|
D:--------------------------------------------------------------|
A:--------------------------------------------------------------|
E:-3------------------------------------------------------------|
            
Submit corrections

comments powered by Disqus
↑ Back to top | The Blue Hearts Bass for Boku No Migite. Lyrics for acoustic guitar and electric guitar. Tablatures and chords are parodies/interpretations of the original songs. You may use it for private study, scholarship, research or language learning purposes only