>
 >
Better Dig Two

Better Dig Two Guitar Tabs

The Band Perry - Better Dig Two chords, tabs, tablatures, lyrics

Guitar lessons | Add/correct | Request | Top 50 tabs Artists:  A B C D E F G H I J K L M N O P Q R S T U V W X Y Z 0-9

Better Dig Two Guitar Tabs – The Band Perry

CD, Sheet music, Poster

Do you like Better Dig Two? Share with your friends now
Bass TabsChordsChords v2Chords v3TabsUkulele
-------------------------------------------------------------------------------
-------------------------------------------------------------------------------

This is my first tab hope you like it!!!

Tuning: STANDARD TUNING CAPO ON 2ND

e|------------------------------------|
B|------------------------------------|
G|------------------------------------|
D|--3h55-5-55-55-5-55-----------------|
A|------------------------------------|
E|------------------------------------|
                                                                                
e|-------3---5---6--------3--------------1h3----------------------|
B|-----3---3---3--------3---3-6-3--6p3----------------------------|
G|-0-3--------------0-3-------------------------------------------|
D|----------------------------------------------------------------| intro 2x
A|----------------------------------------------------------------|
E|----------------------------------------------------------------|

e|-1------1------0-----------------------------------------------------------|
B|-----------------3-1-------1-1--1----3-------------------------------------|
G|---0h3----0h3--------0h3----3-3---3----3-0---------------------------------|
D|---------------------------------------------------------------------------| Verse 1 (2x)
A|---------------------------------------------------------------------------|
E|---------------------------------------------------------------------------|

   (Intro once)

e|---------------------------------------------------------------------------|
B|---------------------------------------------------------------------------|
G|---------------------------------------------------------------------------|
D|--55--x--x--55--x-x--55--x--x--55--x--x------------------------------------|
A|--55--x--x--55--x-x--55--x--x--55--x--x------------------------------------|
E|--33--x--x--33--x-x--33--x--x--33--x--x------------------------------------|

       F  C  G       F  C  G       F  C  G  
e|-----1--0--3-------1--0--3-------1--0--3-3---------------------------------|
B|-----1--1--3-------1--1--3-------1--1--3-3---------------------------------|
G|-----2--0--0-------2--0--0-------2--0--0-0---------------------------------|
D|-----3--2--0-------3--2--0-------3--2--0-0---------------------------------| Pre-Chorus
A|-----3--3--2-------3--3--2-------3--3--2-2---------------------------------|
E|-----1--x--3-------1--x--3-------1--x--3-3---------------------------------|

e|---------------------------------------------------------------------------|
B|---------------------------------------------------------------------------|
G|---------------------------------------------------------------------------|
D|--55--x--x--55--x-x--55--x--x--55------------------------------------------| Chorus
A|--55--x--x--55--x-x--55--x--x--55------------------------------------------|
E|--33--x--x--33--x-x--33--x--x--33------------------------------------------|

  (Intro once)

     F      C      G          F      C      G
e|---1111---0000---33333333---1111---0000---33333333-------------------------|
B|---1111---1111---33333333---1111---1111---33333333-------------------------|
G|---2222---0000---00000000---2222---0000---00000000-------------------------|
D|---3333---2222---00000000---3333---2222---00000000-------------------------| Verse 2
A|---3333---3333---22222222---3333---3333---22222222-------------------------|
E|---1111---xxxx---33333333---1111---xxxx---33333333-------------------------|

  (Pre-Chorus)
  (Chorus)

     G      C      G                  C         G
e|---3333---0000---33333333---3333----0000------33333333---------------------|
B|---3333---1111---33333333---3333----1111------33333333---------------------|
G|---0000---0000---00000000---0000----0000------00000000---------------------|
D|---0000---2222---00000000---0000----2222------00000000---------------------|
A|---2222---3333---22222222---0000----3333------22222222---------------------|
E|---3333---xxxx---33333333---3333----xxxx------33333333---------------------|

     F      C      G          F      C      G
e|---1111---0000---33333333---1111---0000---3--------------------------------|
B|---1111---1111---33333333---1111---1111---3--------------------------------|
G|---2222---0000---00000000---2222---0000---0--------------------------------|
D|---3333---2222---00000000---3333---2222---0--(let ring)--------------------| Bridge
A|---3333---3333---22222222---3333---3333---2--------------------------------|
E|---1111---xxxx---33333333---1111---xxxx---3--------------------------------|

e|-1------1------0--------------------------------1------1------0------------|
B|-----------------3-1-------1-1--1----3--------------------------3-1--2h3---|
G|---0h3----0h3--------0h3----3-3---3----3-0-0h3----0h3----0h3---------3-----|
D|---------------------------------------------------------------------------| Verse 3 
A|---------------------------------------------------------------------------|
E|---------------------------------------------------------------------------|

   (Chorus 2x)

e|-1------1------0-----------------------------------------------------------|
B|-----------------3-1-------4-----------------------------------------------|
G|---0h3----0h3------------0-------------------------------------------------|
D|---------------------------------------------------------------------------| 
A|---------------------------------------------------------------------------|
E|---------------------------------------------------------------------------|



************************************

| /   slide up
| \   slide down
| h   hammer-on
| p   pull-off
| ~   vibrato
| +   harmonic
| x   Mute note
| b   Bend
| pb  Pre-bend
| br  Bend release
| pbr Pre-bend release
| brb Bend release bend

************************************





Comments


Popular The Band Perry tabs & chords
Dont Let Me Be Lonely Chords
If I Die Young Chords
It Burns For You Chords
Mother Like Mine Chords
Mother Like Mine 1 Chords
Walk Me Down The Middle Chords
You Lie 3 Chords
If I Die Young (mandolin Tab) Tabs
All Your Life Ukulele
Walk Me Down The Middle Ukulele


Song lyrics



↑ Back to top | Tablatures and chords are parodies/interpretations of the original songs. You may use it for private study, scholarship, research or language learning purposes only
© 2014 AZChords.com Contact us | Privacy policy | DMCA | Add/correct tabs | Request tabs | Top 50 tabs