» » »

Smoke Ya Later Tabs (ver.2)

Artists:  A B C D E F G H I J K L M N O P Q R S T U V W X Y Z # 

Smoke Ya Later Tabs (ver.2)

The Acacia Strain
Rating:
3/5 (2 votes)

Tabs too difficult? Try these video lessons and learn fast.
                (Intro)
guitar 1
C -5---5---5---5---5---8---8---5---5---5----|
G --6---6---6---6---6---6---6---6---6---6---|
D ---7---7---7---7---7---7---7---7---7---7--|
A#------------------------------------------|
F ------------------------------------------|
A#------------------------------------------|


guitar 2
C  -----------------------------------------|
G  -----------------------------------------|
D  -----------------------------------------|
A# -3---------------2/7-5----/3-------------|
F  -5---------------3/8-7----/5-------------|
A# -----------------------------------------|

guitars 1 & 2
C  -----------------------------------------|
G  -----------------------------------------|
D  -----------------------------------------|
A# -3---x5/\6\3-0---------------------------|
F  -1---x3/\4\1-0---------------------------|
A# -------------0----0-000-0-000-000--------|
                    pm_______________|
            
Tabs too difficult? Try these video lessons and learn fast.




comments powered by Disqus
↑ Back to top | Tablatures and chords are parodies/interpretations of the original songs. You may use it for private study, scholarship, research or language learning purposes only