>
 >
Retreat From The Sun 1

Retreat From The Sun 1 Bass Tabs

That Dog - Retreat From The Sun 1 chords, tabs, tablatures, lyrics

Guitar lessons | Add/correct | Request | Top 50 tabs Artists:  A B C D E F G H I J K L M N O P Q R S T U V W X Y Z 0-9

Retreat From The Sun 1 Bass Tabs – That Dog

CD, Sheet music, Poster

Do you like Retreat From The Sun 1? Share with your friends now
Bass TabsBass Tabs v2Tabs
that dog - retreat from the sun

I am only responsible for submitting this.


Bass
Standard Tuning

G||------------------|------------------|------------------|------------------|
D||------------------|------------------|------------------|------------------|
A||------------------|------------------|------------------|------------------|
E||------------------|------------------|------------------|------------------|


                                                                                 
--6--6--6--6--6--6--6--6--|--5--5--5--6--6--6--6--6--|--8--8--8--8--8--8--8--8--|
--------------------------|--------------------------|--------------------------|
--------------------------|--------------------------|--------------------------|
--------------------------|--------------------------|--------------------------|


                                                                                   
--10--10--8--8--6--6--8--8--|--6--6--6--6--6--6--6--6--|--5--5--5--6--6--6--6--6--|
----------------------------|--------------------------|--------------------------|
----------------------------|--------------------------|--------------------------|
----------------------------|--------------------------|--------------------------|


                                                                                     
--8--8--8--8--8--8--8--8--|--10--10--8--10--10--8--8--8--|--------------------------|
--------------------------|------------------------------|--------------------------|
--------------------------|------------------------------|--3h-4--4--4--3h-4--4--4--|
--------------------------|------------------------------|--------------------------|


                                                                                    
-------------------------|----------------------|----------------------------------|
-------------------------|----------------------|----------------------------------|
--3h-4--4--4----4--4--4--|--6------8----9----9--|--11--11--11--11--11--11--11--11--|
-------------------------|----------------------|----------------------------------|


                                                                            
--------------------------|-------------------------|----------------------|
--------------------------|-------------------------|----------------------|
--3h-4--4--4--3h-4--4--4--|--3h-4--4--4----4--4--4--|--6------8----9----9--|
--------------------------|-------------------------|----------------------|


                                                                                        
----------------------------------|--------------------------|-------------------------|
----------------------------------|--------------------------|-------------------------|
--11--11--11--11--11--11--11--11--|--3h-4--4--4--3h-4--4--4--|--3h-4--4--4----4--4--4--|
----------------------------------|--------------------------|-------------------------|


                                                                                     
----------------------|----------------------------------|--------------------------|
----------------------|----------------------------------|--------------------------|
--6------8----9----9--|--11--11--11--11--11--11--11--11--|--3h-4--4--4--3h-4--4--4--|
----------------------|----------------------------------|--------------------------|


                                                                                    
-------------------------|----------------------|----------------------------------|
-------------------------|----------------------|----------------------------------|
--3h-4--4--4----4--4--4--|--6------8----9----9--|--11--11--11--11--11--11--11--11--|
-------------------------|----------------------|----------------------------------|


                                                                                 
--------------------------|--------------------------|--------------------------|
--------------------------|--6--6--6--6--6--6--6--6--|--------------------------|
--6--6--6--6--6--6--6--6--|--------------------------|--3h-4--4--4--3h-4--4--4--|
--------------------------|--------------------------|--------------------------|


                                                                                 
--------------------------|--------------------------|--------------------------|
--------------------------|--------------------------|--6--6--6--6--6--6--6--6--|
--3h-4--4--4--4--4--4--6--|--6--6--6--6--6--6--6--6--|--------------------------|
--------------------------|--------------------------|--------------------------|


                                                                              
--------------------------|-------------------------|------------------------|
--------------------------|-------------------------|------------------------|
--3h-4--4--4--3h-4--4--4--|--3h-4--4--4----4--4--4--|--6--6--6--8----9----9--|
--------------------------|-------------------------|------------------------|


                                                                             
------------------------|-------------------------|-------------------------|
--6--6--6-------6-------|--6--6-------------------|-------------------------|
-----------9---------9--|--------9--9--8--6----4--|--4--4--4--3----4--4--4--|
------------------------|-------------------------|-------------------------|


                                                                                 
--------------------------|--------------------------|--------------------------|
--------------------------|--6--6--6--6--6--6--6--6--|--------------------------|
--6--6--6--6--6--6--6--6--|--------------------------|--3h-4--4--4--3h-4--4--4--|
--------------------------|--------------------------|--------------------------|


                                                                                
-------------------------|--------------------------|--------------------------|
-------------------------|--------------------------|--------------------------|
--3h-4--4--4----4--4--4--|--6--6--6--6--6--6--6--6--|--------------------------|
-------------------------|--------------------------|--4--4--4--4--4--4--4--4--|


                                                                              
--------------------------|-------------------------|------------------------|
--------------------------|-------------------------|------------------------|
--3h-4--4--4--3h-4--4--4--|--3h-4--4--4----4--4--4--|--6--6--6--8----9----9--|
--------------------------|-------------------------|------------------------|


                                                                                
--------------------------|--------------------------|-------------------------|
--6--6--6--6--6--6--6--6--|--------------------------|-------------------------|
--------------------------|--3h-4--4--4--3h-4--4--4--|--3h-4--4--4----4--4--4--|
--------------------------|--------------------------|-------------------------|


                                                                               
--------------------------|--------------------------|------------------------|
--------------------------|--6--6--6--6--6--6--6--6--|------------------------|
--6--6--6--6--6--6--6--6--|--------------------------|--6--6--6--6----6--6----|
--------------------------|--------------------------|------------------------|


                                                                               
-------------------------|--------------------------|-------------------------|
-------------------------|--------------------------|-------------------------|
-------------------------|--3h-4--4--4--3h-4--4--4--|--3h-4--4--4----4--4--4--|
--4--4--4--4----4--4--4--|--------------------------|-------------------------|


                                                                             
------------------------|------------------------|--------------------------|
------------------------|--6--6--6--6----6--6----|--------------------------|
--6--6--6--6----6--6----|------------------------|--3h-4--4--4--3h-4--4--4--|
------------------------|------------------------|--------------------------|


                                                                                
-------------------------|--------------------------|--------------------------|
-------------------------|--8--8--8--8--8--8--8--8--|--8--8--8--8--8--8--8--8--|
--3h-4--4--4----4--4--4--|--------------------------|--------------------------|
-------------------------|--------------------------|--------------------------|


                                                                                 
--------------------------|--------------------------|--------------------------|
--------------------------|--------------------------|--6--6--6--6--6--6--6--6--|
--6--6--6--6--6--6--6--6--|--6--6--6--6--6--6--6--6--|--------------------------|
--------------------------|--------------------------|--------------------------|


                                                                                 
--------------------------|--------------------------|--------------------------|
--6--6--6--6--6--6--6--6--|--8--8--8--8--8--8--8--8--|--8--8--8--8--8--8--8--8--|
--------------------------|--------------------------|--------------------------|
--------------------------|--------------------------|--------------------------|


                                                                                 
--------------------------|--------------------------|--------------------------|
--------------------------|--------------------------|--6--6--6--6--6--6--6--6--|
--6--6--6--6--6--6--6--6--|--6--6--6--6--6--6--6--6--|--------------------------|
--------------------------|--------------------------|--------------------------|


                                                                                 
--------------------------|--------------------------|--------------------------|
--6--6--6--6--6--6--6--6--|--6--6--------------------|--6--6--------------------|
--------------------------|--------9--9--8--8--6--6--|--------9--9--8--8--6--6--|
--------------------------|--------------------------|--------------------------|


                                                                       
---------------------|---------------------|--------------------------|
---------------------|--6------6------6----|--------------------------|
--6------6------6----|---------------------|--3h-4--4--4--3h-4--4--4--|
---------------------|---------------------|--------------------------|


                                                                      
-------------------------|---------------------|---------------------|
-------------------------|---------------------|--6------6------6----|
--3h-4--4--4----4--4--4--|--6------6------6----|---------------------|
-------------------------|---------------------|---------------------|


                                                                           
--------------------------|-------------------------|---------------------|
--------------------------|-------------------------|---------------------|
--3h-4--4--4--3h-4--4--4--|--3h-4--4--4----4--4--4--|--6------6------6----|
--------------------------|-------------------------|---------------------|


                                                                           
---------------------|--------------------------|-------------------------|
--6------6------6----|--------------------------|-------------------------|
---------------------|--3--4--4--4--3--4--4--4--|--3--4--4--4----4--4--4--|
---------------------|--------------------------|-------------------------|


                                                                                   
---------------------|---------------------|-------------------|------------------|
---------8------8----|--6------6------6----|-------------------|------------------|
--6------------------|---------------------|--4----------------|------------------|
---------------------|---------------------|-------------------|------------------|


                                                                                            
------------------|------------------|--------------------------|--------------------------|
------------------|------------------|--6--6--6--6--6--6--6--6--|--5--5--5--6--6--6--6--6--|
------------------|------------------|--------------------------|--------------------------|
------------------|------------------|--------------------------|--------------------------|


                                                                                         
--------------------------|----------------------------------|--------------------------|
--8--8--8--8--8--8--8--8--|--10--10--10--10--10--10--10--10--|--6--6--6--6--6--6--6--6--|
--------------------------|----------------------------------|--------------------------|
--------------------------|----------------------------------|--------------------------|


                                                                                 
--------------------------|--------------------------|--------------------------|
--5--5--5--6--6--6--6--6--|--8--8--8-----------------|--6--6--6--6--6--6--6--6--|
--------------------------|-----------6--6--6--6--6--|--------------------------|
--------------------------|--------------------------|--------------------------|


                                                                           
--------------------------|-------------------------|---------------------|
--------------------------|--6--6-------------------|---------------------|
--3h-4--4--4--3h-4--4--4--|--------9--9--8--6----4--|--6------6------6----|
--------------------------|-------------------------|---------------------|


                                                                           
---------------------|--------------------------|-------------------------|
--6------6------6----|--------------------------|--6--6-------------------|
---------------------|--3h-4--4--4--3h-4--4--4--|--------9--9--8--6----4--|
---------------------|--------------------------|-------------------------|


                                                                       
---------------------|---------------------|--------------------------|
---------------------|--6------6------6----|--------------------------|
--6------6------6----|---------------------|--3h-4--4--4--3h-4--4--4--|
---------------------|---------------------|--------------------------|


                                                                      
-------------------------|---------------------|---------------------|
--6--6-------------------|---------------------|--6------6------6----|
--------9--9--8--6----4--|--6------6------6----|---------------------|
-------------------------|---------------------|---------------------|


                                                                                             
--------------------------|-------------------------|-------------------|-------------------|
--------------------------|--6--6-------------------|-------------------|-------------------|
--3h-4--4--4--3h-4--4--4--|--------9--9--8--6----4--|--6----------------|-------------------|
--------------------------|-------------------------|-------------------|--4----------------|


                                        
-------------------|------------------||
-------------------|------------------||
--4----------------|------------------||
-------------------|------------------||





Comments


Popular That Dog tabs & chords
Annie Bass Tabs
Gagged And Tied 1 Bass Tabs
Minneapolis Bass Tabs
Long Island Chords
Cowboy Hat Tabs
Gagged And Tied Tabs
Hawthorne Tabs
Rock Star Tabs
She Doesn't Know How Tabs
Side Part Tabs


Song lyrics



↑ Back to top | Tablatures and chords are parodies/interpretations of the original songs. You may use it for private study, scholarship, research or language learning purposes only
© 2014 AZChords.com Contact us | Privacy policy | DMCA | Add/correct tabs | Request tabs | Top 50 tabs