>
 >
Everytime I Try 1

Everytime I Try 1 Bass Tabs

That Dog - Everytime I Try 1 chords, tabs, tablatures, lyrics

Guitar lessons | Add/correct | Request | Top 50 tabs Artists:  A B C D E F G H I J K L M N O P Q R S T U V W X Y Z 0-9

Everytime I Try 1 Bass Tabs – That Dog

CD, Sheet music, Poster

Do you like Everytime I Try 1? Share with your friends now
Bass Tabs
that dog - everytime i try

I am only responsible for submitting this.


Bass
Standard Tuning

                         4x
G||----------------------||-------------------|------------------|------------------|
D||*--------------------*||-------------------|------------------|------------------|
A||*--7------7----------*||--7----------------|------------------|------------------|
E||----------------------||-------------------|------------------|------------------|


                                                                                       
------------------|---------9------11----|---------9------8----|---------9------11----|
------------------|--9-------------------|--9------------------|--9-------------------|
------------------|----------------------|---------------------|----------------------|
------------------|----------------------|---------------------|----------------------|


                                                                                        
---------9------8----|---------------------|---------------------|---------------------|
--9------------------|---------7------9----|---------7------9----|---------7------9----|
---------------------|--7------------------|--7------------------|--7------------------|
---------------------|---------------------|---------------------|---------------------|


                                                                      
---------------------|-----------------------|-----------------------|
---------7------9----|---------7--7----9--7--|---------7--7----9--7--|
--7------------------|--7--------------------|--7--------------------|
---------------------|-----------------------|-----------------------|


                                                                        
-----------------------|-----------------------|-----------------------|
---------7--7----9--7--|---------7--7----9--7--|---------7--7----9--7--|
--7--------------------|--7--------------------|--7--------------------|
-----------------------|-----------------------|-----------------------|


                                                                        
-----------------------|-----------------------|-----------------------|
---------7--7----9--7--|---------7--7----9--7--|---------7--7----9--7--|
--7--------------------|--7--------------------|--7--------------------|
-----------------------|-----------------------|-----------------------|


                                                                        
-----------------------|-----------------------|-----------------------|
---------7--7----9--7--|---------7--7----9--7--|---------7--7----9--7--|
--7--------------------|--7--------------------|--7--------------------|
-----------------------|-----------------------|-----------------------|


                                                                        
-----------------------|-----------------------|-----------------------|
---------7--7----9--7--|---------7--7----9--7--|---------7--7----9--7--|
--7--------------------|--7--------------------|--7--------------------|
-----------------------|-----------------------|-----------------------|


                                                                       
-----------------------|-----------------------|----------------------|
---------7--7----9--7--|---------7--7----9--7--|----------------------|
--7--------------------|--7--------------------|--7------7--9------9--|
-----------------------|-----------------------|----------------------|


                                                                             
--------------------------|----------------------|--------------------------|
--------------------------|----------------------|--------------------------|
--11------11--12----12----|--7------7--9------9--|--11------11--14----14----|
--------------------------|----------------------|--------------------------|


                                                                                        
----------------------|--------------------------|----------------------|--------------|
----------------------|--------------------------|----------------------|--------------|
--7------7--9------9--|--11------11--16----16----|--7------7--9------9--|--11------11--|
----------------------|--------------------------|----------------------|--------------|


                                                                                           
--------------------------|------------------------|-------------------|------------------|
--------------------------|------------------------|-------------------|------------------|
--12----12------12----12--|------12----12----11----|--7----------------|------------------|
--------------------------|------------------------|-------------------|------------------|


                                                                       
------------------|----9-9-8--9--11--9--8--9--|-----------------------|
------------------|---------------------------|---------7--7----9--7--|
------------------|---------------------------|--7--------------------|
------------------|---------------------------|-----------------------|


                                                                        
-----------------------|-----------------------|-----------------------|
---------7--7----9--7--|---------7--7----9--7--|---------7--7----9--7--|
--7--------------------|--7--------------------|--7--------------------|
-----------------------|-----------------------|-----------------------|


                                                                        
-----------------------|-----------------------|-----------------------|
---------7--7----9--7--|---------7--7----9--7--|---------7--7----9--7--|
--7--------------------|--7--------------------|--7--------------------|
-----------------------|-----------------------|-----------------------|


                                                                        
-----------------------|-----------------------|-----------------------|
---------7--7----9--7--|---------7--7----9--7--|---------7--7----9--7--|
--7--------------------|--7--------------------|--7--------------------|
-----------------------|-----------------------|-----------------------|


                                                                        
-----------------------|-----------------------|-----------------------|
---------7--7----9--7--|---------7--7----9--7--|---------7--7----9--7--|
--7--------------------|--7--------------------|--7--------------------|
-----------------------|-----------------------|-----------------------|


                                                                        
-----------------------|-----------------------|-----------------------|
---------7--7----9--7--|---------7--7----9--7--|---------7--7----9--7--|
--7--------------------|--7--------------------|--7--------------------|
-----------------------|-----------------------|-----------------------|


                                                                         
----------------------|--------------------------|----------------------|
----------------------|--------------------------|----------------------|
--7------7--9------9--|--11------11--12----12----|--7------7--9------9--|
----------------------|--------------------------|----------------------|


                                                                             
--------------------------|----------------------|--------------------------|
--------------------------|----------------------|--------------------------|
--11------11--14----14----|--7------7--9------9--|--11------11--16----16----|
--------------------------|----------------------|--------------------------|


                                                                                          
----------------------|--------------|--------------------------|------------------------|
----------------------|--------------|--------------------------|------------------------|
--7------7--9------9--|--11------11--|--12----12------12----12--|------12----12----12----|
----------------------|--------------|--------------------------|------------------------|


                                                                          
-----------------------|-------------------------|-----------------------|
----------7----7--7----|--7--7--7--7--7--7--7----|----------7----7--7----|
--7----7---------------|-------------------------|--7----7---------------|
-----------------------|-------------------------|-----------------------|


                                                                            
-------------------------|-----------------------|-------------------------|
--7--7--7--7--7--7--7----|----------7----7--7----|--7--7--7--7--7--7--7----|
-------------------------|--7----7---------------|-------------------------|
-------------------------|-----------------------|-------------------------|


                                                                              
-----------------------|--------------------------|--------------------------|
----------7----7--7----|--------------------------|--------------------------|
--7----7---------------|--9--9--9--9--9--9--9--9--|--9--9--9--9--9--9--9--9--|
-----------------------|--------------------------|--------------------------|


                                                                         
----------------------|--------------------------|----------------------|
----------------------|--------------------------|----------------------|
--7------7--9------9--|--11------11--12----12----|--7------7--9------9--|
----------------------|--------------------------|----------------------|


                                                                             
--------------------------|----------------------|--------------------------|
--------------------------|----------------------|--------------------------|
--11------11--14----14----|--7------7--9------9--|--11------11--16----16----|
--------------------------|----------------------|--------------------------|


                                                                                          
----------------------|--------------|--------------------------|------------------------|
----------------------|--------------|--------------------------|------------------------|
--7------7--9------9--|--11------11--|--12----12------12----12--|------12----12----12----|
----------------------|--------------|--------------------------|------------------------|


                                                                                
---------------------------|------------------------|--------------------------|
---------------------------|------------------------|--------------------------|
-------------------12--12--|------12----12----12----|------------------12--12--|
--9----9----9--12----------|------------------------|--9----9----9--9----------|


                                                                                   
------------------------|-------------------|------------------|------------------|
------------------------|-------------------|------------------|------------------|
------12----12----12----|--7----------------|------------------|------------------|
------------------------|-------------------|------------------|------------------|


                                                                                     
----9-9-8--9--11--9--8--9--|------------------|------------------|------------------|
---------------------------|------------------|------------------|------------------|
---------------------------|------------------|------------------|------------------|
---------------------------|------------------|------------------|------------------|


                                                                                          
------------------|--13------11------9----|---------9------11----|--13------11------9----|
------------------|-----------------------|--9-------------------|-----------------------|
------------------|-----------------------|----------------------|-----------------------|
------------------|-----------------------|----------------------|-----------------------|


                                                                     
---------------------|--13------11------9----|---------9------11----|
--9------7------6----|-----------------------|--9-------------------|
---------------------|-----------------------|----------------------|
---------------------|-----------------------|----------------------|


                                                                          
--13--14----13------11----|--9------8------------|-----------------------|
--------------------------|----------------11----|---------7--7----9--7--|
--------------------------|----------------------|--7--------------------|
--------------------------|----------------------|-----------------------|


                                                                        
-----------------------|-----------------------|-----------------------|
---------7--7----9--7--|---------7--7----9--7--|---------7--7----9--7--|
--7--------------------|--7--------------------|--7--------------------|
-----------------------|-----------------------|-----------------------|


                                                                        
-----------------------|-----------------------|-----------------------|
---------7--7----9--7--|---------7--7----9--7--|---------7--7----9--7--|
--7--------------------|--7--------------------|--7--------------------|
-----------------------|-----------------------|-----------------------|


                                                                        
-----------------------|-----------------------|-----------------------|
---------7--7----9--7--|---------7--7----9--7--|---------7--7----9--7--|
--7--------------------|--7--------------------|--7--------------------|
-----------------------|-----------------------|-----------------------|


                                                                        
-----------------------|-----------------------|-----------------------|
---------7--7----9--7--|---------7--7----9--7--|---------7--7----9--7--|
--7--------------------|--7--------------------|--7--------------------|
-----------------------|-----------------------|-----------------------|


                                                                     
-----------------------|-----------------------|-------------------||
---------7--7----9--7--|---------7--7----9--7--|-------------------||
--7--------------------|--7--------------------|--7----------------||
-----------------------|-----------------------|-------------------||





Comments


Popular That Dog tabs & chords
Annie 1 Bass Tabs
Being With You Bass Tabs
Gagged And Tied 1 Bass Tabs
I'm Gonna See You 1 Bass Tabs
Minneapolis Bass Tabs
Everytime I Try Tabs
Long Island Tabs
Retreat From The Sun Tabs
To Keep Me Tabs
Long Island Ukulele


Song lyrics



↑ Back to top | Tablatures and chords are parodies/interpretations of the original songs. You may use it for private study, scholarship, research or language learning purposes only
© 2014 AZChords.com Contact us | Privacy policy | DMCA | Add/correct tabs | Request tabs | Top 50 tabs