>
 >
Everytime I Try

Everytime I Try Guitar Tabs

That Dog - Everytime I Try chords, tabs, tablatures, lyrics

Guitar lessons | Add/correct | Request | Top 50 tabs Artists:  A B C D E F G H I J K L M N O P Q R S T U V W X Y Z 0-9

Everytime I Try Guitar Tabs – That Dog

CD, Sheet music, Poster

Do you like Everytime I Try? Share with your friends now
Tabs
that dog - everytime i try

I am only responsible for submitting this.


Guitar 1
Open E Tuning

             4x
E ||----------------------------||--------------------------|--------------------------|
B ||----------------------------||--------------------------|--------------------------|
G#||*--------------------------*||--------------------------|--------------------------|
E ||*--0--0--0--0--0--0--0--0--*||--------0--------0--------|--------0--------0--------|
B ||---0--0--0--0--0--0--0--0---||-----0--------5--------7--|-----0--------5--------7--|
E ||---0--0--0--0--0--0--0--0---||--0--------5--------7-----|--0--------5--------7-----|

                                                                                 
--------------------------|--------------------------|--------------------------|
--------------------------|--------------------------|--------------------------|
--------------------------|--------------------------|--------------------------|
--------0--------0--------|--------0--------0--------|--------0--------0--------|
-----0--------5--------7--|-----0--------5--------7--|-----0--------5--------7--|
--0--------5--------7-----|--0--------5--------7-----|--0--------5--------7-----|

                                                                                 
--------------------------|--------------------------|--------------------------|
--------------------------|--------------------------|--------------------------|
--------------------------|--------------------------|--------------------------|
--------0--------0--------|--------0--------0--------|--------0--------0--------|
-----0--------5--------7--|-----0--------5--------7--|-----0--------5--------7--|
--0--------5--------7-----|--0--------5--------7-----|--0--------5--------7-----|

                                                                                 
--------------------------|--------------------------|--------------------------|
--------------------------|--------------------------|--------------------------|
--------------------------|--------------------------|--------------------------|
--0--0--0--0--0--0--0--0--|--0--0--0--0--0--0--0--0--|--0--0--0--0--0--0--0--0--|
--0--0--0--5--5--5--7--5--|--0--0--0--5--5--5--7--5--|--0--0--0--5--5--5--7--5--|
--0--0--0--5--5--5--7--5--|--0--0--0--5--5--5--7--5--|--0--0--0--5--5--5--7--5--|

                                                                                 
--------------------------|--------------------------|--------------------------|
--------------------------|--------------------------|--------------------------|
--------------------------|--------------------------|--------------------------|
--0--0--0--0--0--0--0--0--|--0--0--0--0--0--0--0--0--|--0--0--0--0--0--0--0--0--|
--0--0--0--5--5--5--7--5--|--0--0--0--5--5--5--7--5--|--0--0--0--5--5--5--7--5--|
--0--0--0--5--5--5--7--5--|--0--0--0--5--5--5--7--5--|--0--0--0--5--5--5--7--5--|

                                                                                 
--------------------------|--------------------------|--------------------------|
--------------------------|--------------------------|--------------------------|
--------------------------|--------------------------|--------------------------|
--0--0--0--0--0--0--0--0--|--0--0--0--0--0--0--0--0--|--0--0--0--0--0--0--0--0--|
--0--0--0--5--5--5--7--5--|--0--0--0--5--5--5--7--5--|--0--0--0--5--5--5--7--5--|
--0--0--0--5--5--5--7--5--|--0--0--0--5--5--5--7--5--|--0--0--0--5--5--5--7--5--|

                                                                                 
--------------------------|--------------------------|--------------------------|
--------------------------|--------------------------|--------------------------|
--------------------------|--------------------------|--------------------------|
--0--0--0--0--0--0--0--0--|--0--0--0--0--0--0--0--0--|--0--0--0--0--0--0--0--0--|
--0--0--0--5--5--5--7--5--|--0--0--0--5--5--5--7--5--|--0--0--0--5--5--5--7--5--|
--0--0--0--5--5--5--7--5--|--0--0--0--5--5--5--7--5--|--0--0--0--5--5--5--7--5--|

                                                                                 
--------------------------|--------------------------|--------------------------|
--------------------------|--------------------------|--------------------------|
--------------------------|--------------------------|--------------------------|
--0--0--0--0--0--0--0--0--|--0--0--0--0--0--0--0--0--|--0--0--0--0--0--0--0--0--|
--0--0--0--5--5--5--7--5--|--0--0--0--5--5--5--7--5--|--0--0--0--5--5--5--7--5--|
--0--0--0--5--5--5--7--5--|--0--0--0--5--5--5--7--5--|--0--0--0--5--5--5--7--5--|

                                                                                 
--------------------------|--------------------------|--------------------------|
--------------------------|--------------------------|--------------------------|
--------------------------|--------------------------|--------------------------|
--0--0--0--0--0--0--0--0--|--0--0--0--0--0--0--0--0--|--0--0--0--0--0--0--0--0--|
--0--0--0--5--5--5--7--5--|--0--0--0--5--5--5--7--5--|--0--0--0--5--5--5--7--5--|
--0--0--0--5--5--5--7--5--|--0--0--0--5--5--5--7--5--|--0--0--0--5--5--5--7--5--|

                                                                            
--------------------------|--------------------------|----------------------|
--------------------------|--------------------------|----------------------|
--------------------------|--------------------------|--0----0----0----0----|
--0--0--0--0--0--0--0--0--|--0--0--0--0--0--0--0--0--|--0----0----0----0----|
--0--0--0--5--5--5--7--5--|--0--0--0--5--5--5--7--5--|--0----0----2----2----|
--0--0--0--5--5--5--7--5--|--0--0--0--5--5--5--7--5--|--0----0----2----2----|

                                                                                            
----------------------|----------------------|----------------------|----------------------|
----------------------|----------------------|----------------------|----------------------|
--0----0----0----0----|--0----0----0----0----|--0----0----0----0----|--0----0----0----0----|
--0----0----0----0----|--0----0----0----0----|--0----0----0----0----|--0----0----0----0----|
--4----4----5----5----|--0----0----2----2----|--4----4----7----7----|--0----0----2----2----|
--4----4----5----5----|--0----0----2----2----|--4----4----7----7----|--0----0----2----2----|

                                                                                  
----------------------|----------------------|------------|----------------------|
----------------------|----------------------|------------|----------------------|
--0----0----0----0----|--0----0----0----0----|--0----0----|--0----0----0----0----|
--0----0----0----0----|--0----0----0----0----|--0----0----|--0----0----0----0----|
--4----4----9----9----|--0----0----2----2----|--4----4----|--5----5----5----5----|
--4----4----9----9----|--0----0----2----2----|--4----4----|--5----5----5----5----|

                                                                             
----------------------|--------------------------|--------------------------|
----------------------|--------------------------|--------------------------|
--0----0----0----0----|--------------------------|--------------------------|
--0----0----0----0----|--------0--------0--------|--------0--------0--------|
--5----5----5----5----|-----0--------5--------7--|-----0--------5--------7--|
--5----5----5----5----|--0--------5--------7-----|--0--------5--------7-----|

                                                                                 
--------------------------|--------------------------|--------------------------|
--------------------------|--------------------------|--------------------------|
--------------------------|--------------------------|--------------------------|
--------0--------0--------|--------0--------0--------|--0--0--0--0--0--0--0--0--|
-----0--------5--------7--|-----0--------5--------7--|--0--0--0--5--5--5--7--5--|
--0--------5--------7-----|--0--------5--------7-----|--0--0--0--5--5--5--7--5--|

                                                                                
--------------------------|--------------------------|--------------------------|
--------------------------|--------------------------|--------------------------|
--------------------------|--------------------------|--------------------------|
--0--0--0--0--0--0--0--0--|--0--0--0--0--0--0--0--0--|--0--0--0--0--0--0--0--0--|
--0--0--0--5--5--5--7--5--|--0--0--0--5--5--5--7--5--|--0--0--0--5--5--5--7--5--|
--0--0--0--5--5--5--7--5--|--0--0--0--5--5--5--7--5--|--0--0--0--5--5--5--7--5--|

                                                                                 
--------------------------|--------------------------|--------------------------|
--------------------------|--------------------------|--------------------------|
--------------------------|--------------------------|--------------------------|
--0--0--0--0--0--0--0--0--|--0--0--0--0--0--0--0--0--|--0--0--0--0--0--0--0--0--|
--0--0--0--5--5--5--7--5--|--0--0--0--5--5--5--7--5--|--0--0--0--5--5--5--7--5--|
--0--0--0--5--5--5--7--5--|--0--0--0--5--5--5--7--5--|--0--0--0--5--5--5--7--5--|

                                                                                 
--------------------------|--------------------------|--------------------------|
--------------------------|--------------------------|--------------------------|
--------------------------|--------------------------|--------------------------|
--0--0--0--0--0--0--0--0--|--0--0--0--0--0--0--0--0--|--0--0--0--0--0--0--0--0--|
--0--0--0--5--5--5--7--5--|--0--0--0--5--5--5--7--5--|--0--0--0--5--5--5--7--5--|
--0--0--0--5--5--5--7--5--|--0--0--0--5--5--5--7--5--|--0--0--0--5--5--5--7--5--|

                                                                                 
--------------------------|--------------------------|--------------------------|
--------------------------|--------------------------|--------------------------|
--------------------------|--------------------------|--------------------------|
--0--0--0--0--0--0--0--0--|--0--0--0--0--0--0--0--0--|--0--0--0--0--0--0--0--0--|
--0--0--0--5--5--5--7--5--|--0--0--0--5--5--5--7--5--|--0--0--0--5--5--5--7--5--|
--0--0--0--5--5--5--7--5--|--0--0--0--5--5--5--7--5--|--0--0--0--5--5--5--7--5--|

                                                                                 
--------------------------|--------------------------|--------------------------|
--------------------------|--------------------------|--------------------------|
--------------------------|--------------------------|--------------------------|
--0--0--0--0--0--0--0--0--|--0--0--0--0--0--0--0--0--|--0--0--0--0--0--0--0--0--|
--0--0--0--5--5--5--7--5--|--0--0--0--5--5--5--7--5--|--0--0--0--5--5--5--7--5--|
--0--0--0--5--5--5--7--5--|--0--0--0--5--5--5--7--5--|--0--0--0--5--5--5--7--5--|

                                                                                            
----------------------|----------------------|----------------------|----------------------|
----------------------|----------------------|----------------------|----------------------|
--0----0----0----0----|--0----0----0----0----|--0----0----0----0----|--0----0----0----0----|
--0----0----0----0----|--0----0----0----0----|--0----0----0----0----|--0----0----0----0----|
--0----0----2----2----|--4----4----5----5----|--0----0----2----2----|--4----4----7----7----|
--0----0----2----2----|--4----4----5----5----|--0----0----2----2----|--4----4----7----7----|

                                                                                  
----------------------|----------------------|----------------------|------------|
----------------------|----------------------|----------------------|------------|
--0----0----0----0----|--0----0----0----0----|--0----0----0----0----|--0----0----|
--0----0----0----0----|--0----0----0----0----|--0----0----0----0----|--0----0----|
--0----0----2----2----|--4----4----9----9----|--0----0----2----2----|--4----4----|
--0----0----2----2----|--4----4----9----9----|--0----0----2----2----|--4----4----|

                                                                         
----------------------|----------------------|--------------------------|
----------------------|----------------------|--------------------------|
--0----0----0----0----|--0----0----0----0----|--0--0--0--0--0--0--0--0--|
--0----0----0----0----|--0----0----0----0----|--0--0--0--0--0--0--0--0--|
--5----5----5----5----|--5----5----5----5----|--0--0--0--5--5--5--5--5--|
--5----5----5----5----|--5----5----5----5----|--0--0--0--5--5--5--5--5--|

                                                                                 
--------------------------|--------------------------|--------------------------|
--------------------------|--------------------------|--------------------------|
--0--0--0--0--0--0--0--0--|--0--0--0--0--0--0--0--0--|--0--0--0--0--0--0--0--0--|
--0--0--0--0--0--0--0--0--|--0--0--0--0--0--0--0--0--|--0--0--0--0--0--0--0--0--|
--5--5--5--5--5--5--5--5--|--0--0--0--5--5--5--5--5--|--5--5--5--5--5--5--5--5--|
--5--5--5--5--5--5--5--5--|--0--0--0--5--5--5--5--5--|--5--5--5--5--5--5--5--5--|

                                                                                 
--------------------------|--------------------------|--------------------------|
--------------------------|--------------------------|--------------------------|
--0--0--0--0--0--0--0--0--|--0--0--0--0--0--0--0--0--|--0--0--0--0--0--0--0--0--|
--0--0--0--0--0--0--0--0--|--0--0--0--0--0--0--0--0--|--0--0--0--0--0--0--0--0--|
--0--0--0--5--5--5--5--5--|--5--5--5--5--5--5--5--5--|--0--0--0--5--5--5--5--5--|
--0--0--0--5--5--5--5--5--|--5--5--5--5--5--5--5--5--|--0--0--0--5--5--5--5--5--|

                                                                             
--------------------------|--------------------------|----------------------|
--------------------------|--------------------------|----------------------|
--0--0--0--0--0--0--0--0--|--0--0--0--0--0--0--0--0--|--0----0----0----0----|
--0--0--0--0--0--0--0--0--|--0--0--0--0--0--0--0--0--|--0----0----0----0----|
--2--2--2--2--2--2--2--2--|--2--2--2--2--2--2--2--2--|--0----0----2----2----|
--2--2--2--2--2--2--2--2--|--2--2--2--2--2--2--2--2--|--0----0----2----2----|

                                                                                            
----------------------|----------------------|----------------------|----------------------|
----------------------|----------------------|----------------------|----------------------|
--0----0----0----0----|--0----0----0----0----|--0----0----0----0----|--0----0----0----0----|
--0----0----0----0----|--0----0----0----0----|--0----0----0----0----|--0----0----0----0----|
--4----4----5----5----|--0----0----2----2----|--4----4----7----7----|--0----0----2----2----|
--4----4----5----5----|--0----0----2----2----|--4----4----7----7----|--0----0----2----2----|


                                                                                 
----------------------|----------------------|------------|----------------------|
----------------------|----------------------|------------|----------------------|
--0----0----0----0----|--0----0----0----0----|--0----0----|--0----0----0----0----|
--0----0----0----0----|--0----0----0----0----|--0----0----|--0----0----0----0----|
--4----4----9----9----|--0----0----2----2----|--4----4----|--5----5----5----5----|
--4----4----9----9----|--0----0----2----2----|--4----4----|--5----5----5----5----|

                                                                                            
----------------------|----------------------|----------------------|----------------------|
----------------------|----------------------|----------------------|----------------------|
--0----0----0----0----|--0----0----0----0----|--0----0----0----0----|--0----0----0----0----|
--0----0----0----0----|--0----0----0----0----|--0----0----0----0----|--0----0----0----0----|
--5----5----5----5----|--5----5----5----5----|--5----5----5----5----|--5----5----5----5----|
--5----5----5----5----|--5----5----5----5----|--5----5----5----5----|--5----5----5----5----|

                                                                             
----------------------|--------------------------|--------------------------|
----------------------|--------------------------|--------------------------|
--0----0----0----0----|--------------------------|--------------------------|
--0----0----0----0----|--------0--------0--------|--------0--------0--------|
--5----5----5----5----|-----0--------5--------7--|-----0--------5--------7--|
--5----5----5----5----|--0--------5--------7-----|--0--------5--------7-----|

                                                                                 
--------------------------|--------------------------|--------------------------|
--------------------------|--------------------------|--------------------------|
--------------------------|--------------------------|--------------------------|
--------0--------0--------|--------0--------0--------|--------0--------0--------|
-----0--------5--------7--|-----0--------5--------7--|-----0--------5--------7--|
--0--------5--------7-----|--0--------5--------7-----|--0--------5--------7-----|

                                                                                 
--------------------------|--------------------------|--------------------------|
--------------------------|--------------------------|--------------------------|
--------------------------|--------------------------|--------------------------|
--------0--------0--------|--------0--------0--------|--------0--------0--------|
-----0--------5--------7--|-----0--------5--------7--|-----0--------5--------7--|
--0--------5--------7-----|--0--------5--------7-----|--0--------5--------7-----|

                                                                                 
--------------------------|--------------------------|--------------------------|
--------------------------|--------------------------|--------------------------|
--------------------------|--------------------------|--------------------------|
--------0--------0--------|--------0--------0--------|--------0--------0--------|
-----0--------5--------7--|-----0--------5--------7--|-----0--------5--------7--|
--0--------5--------7-----|--0--------5--------7-----|--0--------5--------7-----|

                                                                                 
--------------------------|--------------------------|--------------------------|
--------------------------|--------------------------|--------------------------|
--------------------------|--------------------------|--------------------------|
--------0--------0--------|--------0--------0--------|--------0--------0--------|
-----0--------5--------7--|-----0--------5--------7--|-----0--------5--------7--|
--0--------5--------7-----|--0--------5--------7-----|--0--------5--------7-----|

                                                                                 
--------------------------|--------------------------|--------------------------|
--------------------------|--------------------------|--------------------------|
--------------------------|--------------------------|--------------------------|
--------0--------0--------|--------0--------0--------|--0--0--0--0--0--0--0--0--|
-----0--------5--------7--|-----0--------5--------7--|--0--0--0--5--5--5--7--5--|
--0--------5--------7-----|--0--------5--------7-----|--0--0--0--5--5--5--7--5--|

                                                                                 
--------------------------|--------------------------|--------------------------|
--------------------------|--------------------------|--------------------------|
--------------------------|--------------------------|--------------------------|
--0--0--0--0--0--0--0--0--|--0--0--0--0--0--0--0--0--|--0--0--0--0--0--0--0--0--|
--0--0--0--5--5--5--7--5--|--0--0--0--5--5--5--7--5--|--0--0--0--5--5--5--7--5--|
--0--0--0--5--5--5--7--5--|--0--0--0--5--5--5--7--5--|--0--0--0--5--5--5--7--5--|

                                                                                 
--------------------------|--------------------------|--------------------------|
--------------------------|--------------------------|--------------------------|
--------------------------|--------------------------|--------------------------|
--0--0--0--0--0--0--0--0--|--0--0--0--0--0--0--0--0--|--0--0--0--0--0--0--0--0--|
--0--0--0--5--5--5--7--5--|--0--0--0--5--5--5--7--5--|--0--0--0--5--5--5--7--5--|
--0--0--0--5--5--5--7--5--|--0--0--0--5--5--5--7--5--|--0--0--0--5--5--5--7--5--|

                                                                                 
--------------------------|--------------------------|--------------------------|
--------------------------|--------------------------|--------------------------|
--------------------------|--------------------------|--------------------------|
--0--0--0--0--0--0--0--0--|--0--0--0--0--0--0--0--0--|--0--0--0--0--0--0--0--0--|
--0--0--0--5--5--5--7--5--|--0--0--0--5--5--5--7--5--|--0--0--0--5--5--5--7--5--|
--0--0--0--5--5--5--7--5--|--0--0--0--5--5--5--7--5--|--0--0--0--5--5--5--7--5--|

                                                                                 
--------------------------|--------------------------|--------------------------|
--------------------------|--------------------------|--------------------------|
--------------------------|--------------------------|--------------------------|
--0--0--0--0--0--0--0--0--|--0--0--0--0--0--0--0--0--|--0--0--0--0--0--0--0--0--|
--0--0--0--5--5--5--7--5--|--0--0--0--5--5--5--7--5--|--0--0--0--5--5--5--7--5--|
--0--0--0--5--5--5--7--5--|--0--0--0--5--5--5--7--5--|--0--0--0--5--5--5--7--5--|

                                                                           
--------------------------|--------------------------|-------------------||
--------------------------|--------------------------|-------------------||
--------------------------|--------------------------|-------------------||
--0--0--0--0--0--0--0--0--|--0--0--0--0--0--0--0--0--|--0----------------||
--0--0--0--5--5--5--7--5--|--0--0--0--5--5--5--7--5--|--0----------------||
--0--0--0--5--5--5--7--5--|--0--0--0--5--5--5--7--5--|--0----------------||

Guitar 2
Open E Tuning

Listen and play along

                        4x
E ||--------------------||------------------|------------------|------------------|
B ||--------------------||------------------|------------------|------------------|
G#||*------------------*||------------------|------------------|------------------|
E ||*------------------*||------------------|------------------|------------------|
B ||--------------------||------------------|------------------|------------------|
E ||--------------------||------------------|------------------|------------------|

                                                                            
------------------|------------------|------------------|------------------|
------------------|------------------|------------------|------------------|
------------------|------------------|------------------|------------------|
------------------|------------------|------------------|------------------|
------------------|------------------|------------------|------------------|
------------------|------------------|------------------|------------------|

                                                                         
------------------|--0--0--0--0--0--0--0--0--|--0--0--0--0--0--0--0--0--|
------------------|--0--0--0--0--0--0--0--0--|--0--0--0--0--0--0--0--0--|
------------------|--0--0--0--0--0--0--0--0--|--0--0--0--0--0--0--0--0--|
------------------|--------------------------|--------------------------|
------------------|--------------------------|--------------------------|
------------------|--------------------------|--------------------------|

                                                                                             
--0--0--0--0--0--0--0--0--|--0--0--0--0--0--0--0--0--|--0----------------|------------------|
--0--0--0--0--0--0--0--0--|--0--0--0--0--0--0--0--0--|--0----------------|------------------|
--0--0--0--0--0--0--0--0--|--0--0--0--0--0--0--0--0--|--0----------------|------------------|
--------------------------|--------------------------|-------------------|------------------|
--------------------------|--------------------------|-------------------|------------------|
--------------------------|--------------------------|-------------------|------------------|

                                                                            
------------------|------------------|------------------|------------------|
------------------|------------------|------------------|------------------|
------------------|------------------|------------------|------------------|
------------------|------------------|------------------|------------------|
------------------|------------------|------------------|------------------|
------------------|------------------|------------------|------------------|

                                                                            
------------------|------------------|------------------|------------------|
------------------|------------------|------------------|------------------|
------------------|------------------|------------------|------------------|
------------------|------------------|------------------|------------------|
------------------|------------------|------------------|------------------|
------------------|------------------|------------------|------------------|

                                                                            
------------------|------------------|------------------|------------------|
------------------|------------------|------------------|------------------|
------------------|------------------|------------------|------------------|
------------------|------------------|------------------|------------------|
------------------|------------------|------------------|------------------|
------------------|------------------|------------------|------------------|

                                                                                            
------------------|------------------|-----0-----0-----0-----0--|-----0-----0-----0-----0--|
------------------|------------------|--4-----4-----4-----4-----|--4-----4-----4-----4-----|
------------------|------------------|--------------------------|--------------------------|
------------------|------------------|--------------------------|--------------------------|
------------------|------------------|--------------------------|--------------------------|
------------------|------------------|--------------------------|--------------------------|

                                                                                   
-----0-----0-----0-----0--|-----0-----0-----0-----0--|-----0-----0------0------0--|
--7-----7-----7-----7-----|--7-----7-----7-----7-----|--9-----9-----10-----10-----|
--------------------------|--------------------------|----------------------------|
--------------------------|--------------------------|----------------------------|
--------------------------|--------------------------|----------------------------|
--------------------------|--------------------------|----------------------------|

                                                                       
-----0-----0-----0-----0--|-----0-----0------0------0--|-----0-----0--|
--7-----7-----9-----9-----|--9-----9-----10-----10-----|--7-----7-----|
--------------------------|----------------------------|--------------|
--------------------------|----------------------------|--------------|
--------------------------|----------------------------|--------------|
--------------------------|----------------------------|--------------|

                                                                            
-----0-----0-----0-----0--|-----0-----0-----0-----0--|---------0-----------|
--4-----4-----4-----4-----|--4-----4-----4-----4-----|--0-------------0----|
--------------------------|--------------------------|---------------------|
--------------------------|--------------------------|---------------------|
--------------------------|--------------------------|---------------------|
--------------------------|--------------------------|---------------------|

                                                                                     
----0-----------0----|---------0------0----|------------------|--5------4------2----|
-----------0---------|--0------------------|------------------|--5------5------4----|
---------------------|---------------------|------------------|---------------------|
---------------------|---------------------|------------------|---------------------|
---------------------|---------------------|------------------|---------------------|
---------------------|---------------------|------------------|---------------------|

                                                                                      
----4------4--------|--5------4------2----|----4------0--------|---------0-----------|
----5------5--------|--5------5------4----|----5------0--------|--0-------------0----|
--------------------|---------------------|--------------------|---------------------|
--------------------|---------------------|--------------------|---------------------|
--------------------|---------------------|--------------------|---------------------|
--------------------|---------------------|--------------------|---------------------|

                                                                                        
----0-----------0----|--0----------------|------------------|--5--5--5--4--4--4--2--2--|
-----------0---------|--0----------------|------------------|--5--5--5--5--5--5--4--4--|
---------------------|-------------------|------------------|--------------------------|
---------------------|-------------------|------------------|--------------------------|
---------------------|-------------------|------------------|--------------------------|
---------------------|-------------------|------------------|--------------------------|

                                                                                 
--2--4--4--4--4--4--4--4--|--5--5--5--4--4--4--2--2--|--2--4--4--4--0--0--0--0--|
--4--5--5--5--5--5--5--5--|--5--5--5--5--5--5--4--4--|--4--5--5--5--0--0--0--0--|
--------------------------|--------------------------|--------------------------|
--------------------------|--------------------------|--------------------------|
--------------------------|--------------------------|--------------------------|
--------------------------|--------------------------|--------------------------|

                                                                                   
---------0-----------|----0-----------0----|--0----------------|------------------|
--0-------------0----|-----------0---------|--0----------------|------------------|
---------------------|---------------------|-------------------|------------------|
---------------------|---------------------|-------------------|------------------|
---------------------|---------------------|-------------------|------------------|
---------------------|---------------------|-------------------|------------------|

                                                                                 
-----0-----0-----0-----0--|-----0-----0-----0-----0--|-----0-----0-----0-----0--|
--4-----4-----4-----4-----|--4-----4-----4-----4-----|--7-----7-----7-----7-----|
--------------------------|--------------------------|--------------------------|
--------------------------|--------------------------|--------------------------|
--------------------------|--------------------------|--------------------------|
--------------------------|--------------------------|--------------------------|

                                                                                   
-----0-----0-----0-----0--|-----0-----0------0------0--|-----0-----0-----0-----0--|
--7-----7-----7-----7-----|--9-----9-----10-----10-----|--7-----7-----9-----9-----|
--------------------------|----------------------------|--------------------------|
--------------------------|----------------------------|--------------------------|
--------------------------|----------------------------|--------------------------|
--------------------------|----------------------------|--------------------------|

                                                                       
-----0-----0------0------0--|-----0-----0--|-----0-----0-----0-----0--|
--9-----9-----10-----10-----|--7-----7-----|--4-----4-----4-----4-----|
----------------------------|--------------|--------------------------|
----------------------------|--------------|--------------------------|
----------------------------|--------------|--------------------------|
----------------------------|--------------|--------------------------|

                                                                                     
-----0-----0-----0-----0--|-------------------|------------------|------------------|
--4-----4-----4-----4-----|--0----------------|------------------|------------------|
--------------------------|-------------------|------------------|------------------|
--------------------------|-------------------|------------------|------------------|
--------------------------|-------------------|------------------|------------------|
--------------------------|-------------------|------------------|------------------|

                                                                            
------------------|------------------|------------------|------------------|
------------------|------------------|------------------|------------------|
------------------|------------------|------------------|------------------|
------------------|------------------|------------------|------------------|
------------------|------------------|------------------|------------------|
------------------|------------------|------------------|------------------|

                                                                                            
------------------|------------------|-----0-----0-----0-----0--|-----0-----0-----0-----0--|
------------------|------------------|--4-----4-----4-----4-----|--4-----4-----4-----4-----|
------------------|------------------|--------------------------|--------------------------|
------------------|------------------|--------------------------|--------------------------|
------------------|------------------|--------------------------|--------------------------|
------------------|------------------|--------------------------|--------------------------|

                                                                                   
-----0-----0-----0-----0--|-----0-----0-----0-----0--|-----0-----0------0------0--|
--7-----7-----7-----7-----|--7-----7-----7-----7-----|--9-----9-----10-----10-----|
--------------------------|--------------------------|----------------------------|
--------------------------|--------------------------|----------------------------|
--------------------------|--------------------------|----------------------------|
--------------------------|--------------------------|----------------------------|

                                                                       
-----0-----0-----0-----0--|-----0-----0------0------0--|-----0-----0--|
--7-----7-----9-----9-----|--9-----9-----10-----10-----|--7-----7-----|
--------------------------|----------------------------|--------------|
--------------------------|----------------------------|--------------|
--------------------------|----------------------------|--------------|
--------------------------|----------------------------|--------------|

                                                                                 
-----0-----0-----0-----0--|-----0-----0-----0-----0--|-----0-----0-----0-----0--|
--4-----4-----4-----4-----|--4-----4-----4-----4-----|--4-----4-----4-----4-----|
--------------------------|--------------------------|--------------------------|
--------------------------|--------------------------|--------------------------|
--------------------------|--------------------------|--------------------------|
--------------------------|--------------------------|--------------------------|

                                                                                 
-----0-----0-----0-----0--|-----0-----0-----0-----0--|-----0-----0-----0-----0--|
--4-----4-----4-----4-----|--4-----4-----4-----4-----|--4-----4-----4-----4-----|
--------------------------|--------------------------|--------------------------|
--------------------------|--------------------------|--------------------------|
--------------------------|--------------------------|--------------------------|
--------------------------|--------------------------|--------------------------|

                                                                             
-------------------|------------------|------------------|------------------|
--0----------------|------------------|------------------|------------------|
-------------------|------------------|------------------|------------------|
-------------------|------------------|------------------|------------------|
-------------------|------------------|------------------|------------------|
-------------------|------------------|------------------|------------------|

                                                                            
------------------|------------------|------------------|------------------|
------------------|------------------|------------------|------------------|
------------------|------------------|------------------|------------------|
------------------|------------------|------------------|------------------|
------------------|------------------|------------------|------------------|
------------------|------------------|------------------|------------------|

                                                                            
------------------|------------------|------------------|------------------|
------------------|------------------|------------------|------------------|
------------------|------------------|------------------|------------------|
------------------|------------------|------------------|------------------|
------------------|------------------|------------------|------------------|
------------------|------------------|------------------|------------------|

                                                                                     
---------------------|---------------------|---------------------|------------------|
---------------------|---------------------|---------------------|------------------|
--8------7------5----|----3------1----1----|--0------------1--3--|------------------|
---------------------|---------------------|---------------------|------------------|
---------------------|---------------------|---------------------|------------------|
---------------------|---------------------|---------------------|------------------|

                                                                                     
---------------------|---------------------|---------------------|------------------|
---------------------|---------------------|---------------------|------------------|
--8------7------5----|----3------1----1----|--0------------1--3--|------------------|
---------------------|---------------------|---------------------|------------------|
---------------------|---------------------|---------------------|------------------|
---------------------|---------------------|---------------------|------------------|

(Arranged for 2 guitars)
----------------------|---------------------|---------------------|------------------|
--9------7------10----|----9------7----9----|--5------------7--9--|------------------|
--8------7------5-----|----3------1----1----|--0------------1--3--|------------------|
----------------------|---------------------|---------------------|------------------|
----------------------|---------------------|---------------------|------------------|
----------------------|---------------------|---------------------|------------------|

                                                                                        
----------------------|---------------------|---------------------|--------------------|
--9------7------10----|----9------7----7----|--5------------7--5--|--------7/---9------|
--8------7------5-----|----3------1----1----|--0------------1--3--|--------------------|
----------------------|---------------------|---------------------|--------------------|
----------------------|---------------------|---------------------|--------------------|
----------------------|---------------------|---------------------|--------------------|

                                                                                          
----------------------|------------------------|---------------------|------------------||
--5-------------7--9--|---------7-----9-----7--|--5------------7--5--|------------------||
--8------7------5-----|----3-------1-----1-----|--0------------1--3--|------------------||
----------------------|------------------------|---------------------|------------------||
----------------------|------------------------|---------------------|------------------||
----------------------|------------------------|---------------------|------------------||





Comments


Popular That Dog tabs & chords
Gagged And Tied Bass Tabs
I'm Gonna See You 1 Bass Tabs
Long Island 1 Bass Tabs
Old Timer 1 Bass Tabs
Anymore Tabs
He's Kissing Christian Tabs
I'm Gonna See You Tabs
Lip Gloss Tabs
Rock Star Tabs
To Keep Me Tabs


Song lyrics



↑ Back to top | Tablatures and chords are parodies/interpretations of the original songs. You may use it for private study, scholarship, research or language learning purposes only
© 2014 AZChords.com Contact us | Privacy policy | DMCA | Add/correct tabs | Request tabs | Top 50 tabs