» » »

Ten Years After, Ride On Cowboy Bass tabs (ver.1)

Artists:  A B C D E F G H I J K L M N O P Q R S T U V W X Y Z # 

Ride On Cowboy Bass tabs (ver.1)

Ten Years After Tabs
 Rating:
4/5 (4 votes)
Ride On Cowboy lessons Tabs too difficult? Try these video lessons and learn fast
                
  intro x2
G|-----------23-------------32--|
D|------------------------------|
A|7\-----023-----7\-----023-----|
E|---0--3-----------0--3--------|

  verse
G|-----------23----------------32--------------2334----------|
D|-----------------------------------------------------------|
A|7\-----023-----7\-----02323----7\-----02323------2--02--2--|
E|---0--3-----------0--3------------0--3-------------3--0----|

  chorus x2
G|----------------------5-5-4--|
D|2-2-2345-75875-7-7-757-------|
A|-----------------------------|
E|-----------------------------|
            
Submit corrections

comments powered by Disqus
↑ Back to top | Ten Years After Bass for Ride On Cowboy. Lyrics for acoustic guitar and electric guitar. Tablatures and chords are parodies/interpretations of the original songs. You may use it for private study, scholarship, research or language learning purposes only