» » »

Vilja Tabs (ver.2)

Artists:  A B C D E F G H I J K L M N O P Q R S T U V W X Y Z # 

Vilja Tabs (ver.2)

Tenhi
Rating:
0/5 (0 votes)

Hard to play? Try these video lessons and learn fast.
                (Intro)
Hopefully this'll inspire someone with a better ear than me to write the whole tab =P 

Let ring throughout most of it


E|-------------------------------------------------------------------------|
B|-------------------------------------------------------------------------|
G|-------4-------0-------3----------4-------0-----4----------3-------------|
D|-----2-------4-------4----------2-------4---4-----4------4---------------|
A|---2-------2-------4----------2-------2-------2--------4-----------------|
E|-0-------0-------2----------0-------0----------------2-------------------|


E|----------------------------------------------------------------3--2~----|
B|-------0-----2-------3~---2h3---------------2-----2h3-0~--------3--------|
G|-----3---3---------4----------4-----------2---2---------------4----------|
D|---4-------4-----4--------------4-------4-------4-----------4------------|
A|-4-------------2----------------------0-------------------2--------------|
E|-------------------------------------------------------------------------|

E|-------2-----2h3-0~-------2~---------------------------------------------|
B|-----2---2----------------2~---------------------------------------------|
G|---2-------2--------------2~---------------------------------------------|
D|-4------------------------4~---------------------------------------------|
A|-0------------------------4~---------------------------------------------|
E|--------------------------2~-----------------------------------
            
Hard to play? Try these video lessons and learn fast. | Correct




comments powered by Disqus
↑ Back to top | Tablatures and chords are parodies/interpretations of the original songs. You may use it for private study, scholarship, research or language learning purposes only