>
 >
My Wall 1

My Wall 1 Guitar Tabs

Ten Foot Pole - My Wall 1 chords, tabs, tablatures, lyrics

Guitar lessons | Add/correct | Request | Top 50 tabs Artists:  A B C D E F G H I J K L M N O P Q R S T U V W X Y Z 0-9

My Wall 1 Guitar Tabs – Ten Foot Pole

CD, Sheet music, Poster

Do you like My Wall 1? Share with your friends now
Bass TabsTabsTabs v2
its probally best to tune your guitar down one note and play everything I 
have tabbed out one fret up... I'm just too lazy to tune my guitar 
differently to play ten foot pole songs so I don't... which is why I'm 
tabbing this out in normal tuning...

		MY WALL

e-|----------------------------------------------------------
B-|----------------------------------------------------------
G-|---------6-6----------6-6-------------------------6-6-6-6-
D-|-8-8-4-4-6-6--8-8-4-4-6-6-8-8-8-8-8-8-8-8-4-4-4-4-6-6-6-6-
A-|-8-8-4-4-4-4--8-8-4-4-4-4-8-8-8-8-8-8-8-8-4-4-4-4-4-4-4-4-
E-|-6-6-2-2------6-6-2-2-----6-6-6-6-6-6-6-6-2-2-2-2---------

e-|----------------------------------|
B-|----------------------------------|
G-|--------------------------6-6-6-6-|
D-|--8-8-8-8-8-8-8-8-4-4-4-4-6-6-6-6-|
A-|--8-8-8-8-8-8-8-8-4-4-4-4-4-4-4-4-|
E-|--6-6-6-6-6-6-6-6-2-2-2-2---------|

e-|--------------------------------------------------
B-|--------------------------------------------------
G-|--------------------6--6--------------------6--6--
D-|--8--8--8--8--4--4--6--6--8--8--8--8--4--4--6--6--
A-|--8--8--8--8--4--4--4--4--8--8--8--8--4--4--4--4--
E-|--6--6--6--6--2--2--------6--6--6--6--2--2--------

e-|--------------------------------------------------
B-|--------------------------------------------------
G-|--------------------6--6--------------------6--6--
D-|--8--8--8--8--4--4--6--6--8--8--8--8--4--4--6--6--
A-|--8--8--8--8--4--4--4--4--8--8--8--8--4--4--4--4--
E-|--6--6--6--6--2--2--------6--6--6--6--2--2--------

e-|---------------------------------------------------------------------
B-|---------------------------------------------------------------------
G-|-8-8-8-8-8-8-8-8-6-6-6-6-6-6-6-6-10-10-10-10-10-10-10-10-------------
D-|-8-8-8-8-8-8-8-8-6-6-6-6-6-6-6-6-10-10-10-10-10-10-10-10-9-9-9-8-8-8-
A-|-6-6-6-6-6-6-6-6-4-4-4-4-4-4-4-4--8--8--8--8--8--8--8--8-9-9-9-8-8-8-
E-|---------------------------------------------------------7-7-7-6-6-6-

e-|---------------------------------------------------------------------
B-|---------------------------------------------------------------------
G-|-8-8-8-8-11-11-11-11-10-10-10-10-10-10-10-10-11-11-11-11-10-10-10-10-
D-|-8-8-8-8-11-11-11-11-10-10-10-10-10-10-10-10-11-11-11-11-10-10-10-10-
A-|-6-6-6-6--9--9--9--9--8--8--8--8--8--8--8--8--9--9--9--9--8--8--8--8-
E-|---------------------------------------------------------------------

e-|---------------------------------------------------------------------
B-|---------------------------------------------------------------------
G-|-8-8-8-8-8-8-8-8-6-6-6-6-6-6-6-6-10-10-10-10-10-10-10-10-------------
D-|-8-8-8-8-8-8-8-8-6-6-6-6-6-6-6-6-10-10-10-10-10-10-10-10-9-9-9-8-8-8-
A-|-6-6-6-6-6-6-6-6-4-4-4-4-4-4-4-4--8--8--8--8--8--8--8--8-9-9-9-8-8-8-
E-|---------------------------------------------------------7-7-7-6-6-6-

e-|---------------------------------------------------------------------
B-|---------------------------------------------------------------------
G-|-8-8-8-8-8-8-8-8-6-6-6-6-6-6-6-6-10-10-10-10-10-10-10-10-------------
D-|-8-8-8-8-8-8-8-8-6-6-6-6-6-6-6-6-10-10-10-10-10-10-10-10-9-9-9-8-8-8-
A-|-6-6-6-6-6-6-6-6-4-4-4-4-4-4-4-4--8--8--8--8--8--8--8--8-9-9-9-8-8-8-
E-|---------------------------------------------------------7-7-7-6-6-6-

e-|------------------------------------------------------------------
B-|------------------------------------------------------------------
G-|-------------------------6-6-6-6--------------------------6-6-6-6-
D-|-8-8-8-8-----6---4-4-4-4-6-6-6-6--8-8-8-8-----6---4-4-4-4-6-6-6-6-
A-|-8-8-8-8-6-8---6-4-4-4-4-4-4-4-4--8-8-8-8-6-8---6-4-4-4-4-4-4-4-4-
E-|-6-6-6-6---------2-2-2-2----------6-6-6-6---------2-2-2-2---------

e-|------------------------------------------------------------------
B-|------------------------------------------------------------------
G-|-------------------------6-6-6-6--------------------------6-6-6-6-
D-|-8-8-8-8-----6---4-4-4-4-6-6-6-6--8-8-8-8-----6---4-4-4-4-6-6-6-6-
A-|-8-8-8-8-6-8---6-4-4-4-4-4-4-4-4--8-8-8-8-6-8---6-4-4-4-4-4-4-4-4-
E-|-6-6-6-6---------2-2-2-2----------6-6-6-6---------2-2-2-2---------


e-|--------------------------------------------------
B-|--------------------------------------------------
G-|--------------------6--6--------------------6--6--
D-|--8--8--8--8--4--4--6--6--8--8--8--8--4--4--6--6--
A-|--8--8--8--8--4--4--4--4--8--8--8--8--4--4--4--4--
E-|--6--6--6--6--2--2--------6--6--6--6--2--2--------


e-|--------------------------------------------------
B-|--------------------------------------------------
G-|--------------------6--6--------------------6--6--
D-|--8--8--8--8--4--4--6--6--8--8--8--8--4--4--6--6--
A-|--8--8--8--8--4--4--4--4--8--8--8--8--4--4--4--4--
E-|--6--6--6--6--2--2--------6--6--6--6--2--2--------


e-|---------------------------------------------------------------------
B-|---------------------------------------------------------------------
G-|-8-8-8-8-8-8-8-8-6-6-6-6-6-6-6-6-10-10-10-10-10-10-10-10-------------
D-|-8-8-8-8-8-8-8-8-6-6-6-6-6-6-6-6-10-10-10-10-10-10-10-10-9-9-9-8-8-8-
A-|-6-6-6-6-6-6-6-6-4-4-4-4-4-4-4-4--8--8--8--8--8--8--8--8-9-9-9-8-8-8-
E-|---------------------------------------------------------7-7-7-6-6-6-

e-|---------------------------------------------------------------------
B-|---------------------------------------------------------------------
G-|-8-8-8-8-11-11-11-11-10-10-10-10-10-10-10-10-11-11-11-11-10-10-10-10-
D-|-8-8-8-8-11-11-11-11-10-10-10-10-10-10-10-10-11-11-11-11-10-10-10-10-
A-|-6-6-6-6--9--9--9--9--8--8--8--8--8--8--8--8--9--9--9--9--8--8--8--8-
E-|---------------------------------------------------------------------

e-|---------------------------------------------------------------------
B-|---------------------------------------------------------------------
G-|-8-8-8-8-8-8-8-8-6-6-6-6-6-6-6-6-10-10-10-10-10-10-10-10-------------
D-|-8-8-8-8-8-8-8-8-6-6-6-6-6-6-6-6-10-10-10-10-10-10-10-10-9-9-9-8-8-8-
A-|-6-6-6-6-6-6-6-6-4-4-4-4-4-4-4-4--8--8--8--8--8--8--8--8-9-9-9-8-8-8-
E-|---------------------------------------------------------7-7-7-6-6-6-


e-|---------------------------------------------------------------------
B-|---------------------------------------------------------------------
G-|-8-8-8-8-8-8-8-8-6-6-6-6-6-6-6-6-10-10-10-10-10-10-10-10-------------
D-|-8-8-8-8-8-8-8-8-6-6-6-6-6-6-6-6-10-10-10-10-10-10-10-10-9-9-9-8-8-8-
A-|-6-6-6-6-6-6-6-6-4-4-4-4-4-4-4-4--8--8--8--8--8--8--8--8-9-9-9-8-8-8-
E-|---------------------------------------------------------7-7-7-6-6-6-

e-|---------------------------------------------------------
B-|---------------------------------------------------------
G-|---------6-7-8---------8-7-6---------6-7-8---------8-7-6-
D-|-6-6-6-6-6-7-8-6-6-6-6-8-7-6-6-6-6-6-6-7-8-6-6-6-6-8-7-6-
A-|-6-6-6-6-4-5-6-6-6-6-6-6-5-4-6-6-6-6-4-5-6-6-6-6-6-6-5-4-
E-|-4-4-4-4-------4-4-4-4-------4-4-4-4-------4-4-4-4-------


e-|---------------------------------------------------------
B-|---------------------------------------------------------
G-|---------6-7-8---------8-7-6---------6-7-8---------8-7-6-
D-|-6-6-6-6-6-7-8-6-6-6-6-8-7-6-6-6-6-6-6-7-8-6-6-6-6-8-7-6-
A-|-6-6-6-6-4-5-6-6-6-6-6-6-5-4-6-6-6-6-4-5-6-6-6-6-6-6-5-4-
E-|-4-4-4-4-------4-4-4-4-------4-4-4-4-------4-4-4-4-------

e-|---------------------------------|
B-|---------------------------------|
G-|---------------8-7-6-------------|
D-|-8-7-6-7-6-5-1-8-7-6-8-7-6-4-6-7-|
A-|-8-7-6-7-6-5-1-6-5-4-8-7-6-4-6-7-|
E-|-6-5-4-5-4-3---------6-5-4-2-4-5-|


e-|------------------------------------------------------------------
B-|------------------------------------------------------------------
G-|-------------------------6-6-6-6--------------------------6-6-6-6-
D-|-8-8-8-8-----6---4-4-4-4-6-6-6-6--8-8-8-8-----6---4-4-4-4-6-6-6-6-
A-|-8-8-8-8-6-8---6-4-4-4-4-4-4-4-4--8-8-8-8-6-8---6-4-4-4-4-4-4-4-4-
E-|-6-6-6-6---------2-2-2-2----------6-6-6-6---------2-2-2-2---------


e-|------------------------------------------------------------------
B-|------------------------------------------------------------------
G-|-------------------------6-6-6-6--------------------------6-6-6-6-
D-|-8-8-8-8-----6---4-4-4-4-6-6-6-6--8-8-8-8-----6---4-4-4-4-6-6-6-6-
A-|-8-8-8-8-6-8---6-4-4-4-4-4-4-4-4--8-8-8-8-6-8---6-4-4-4-4-4-4-4-4-
E-|-6-6-6-6---------2-2-2-2----------6-6-6-6---------2-2-2-2---------


e-|--------------------------------------------------
B-|--------------------------------------------------
G-|--------------------6--6--------------------6--6--
D-|--8--8--8--8--4--4--6--6--8--8--8--8--4--4--6--6--
A-|--8--8--8--8--4--4--4--4--8--8--8--8--4--4--4--4--
E-|--6--6--6--6--2--2--------6--6--6--6--2--2--------


e-|--------------------------------------------------
B-|--------------------------------------------------
G-|--------------------6--6--------------------6--6--
D-|--8--8--8--8--4--4--6--6--8--8--8--8--4--4--6--6--
A-|--8--8--8--8--4--4--4--4--8--8--8--8--4--4--4--4--
E-|--6--6--6--6--2--2--------6--6--6--6--2--2--------


e-|---------------------------------------------------------------------
B-|---------------------------------------------------------------------
G-|-8-8-8-8-8-8-8-8-6-6-6-6-6-6-6-6-10-10-10-10-10-10-10-10-------------
D-|-8-8-8-8-8-8-8-8-6-6-6-6-6-6-6-6-10-10-10-10-10-10-10-10-9-9-9-8-8-8-
A-|-6-6-6-6-6-6-6-6-4-4-4-4-4-4-4-4--8--8--8--8--8--8--8--8-9-9-9-8-8-8-
E-|---------------------------------------------------------7-7-7-6-6-6-


e-|---------------------------------------------------------------------
B-|---------------------------------------------------------------------
G-|-8-8-8-8-11-11-11-11-10-10-10-10-10-10-10-10-11-11-11-11-10-10-10-10-
D-|-8-8-8-8-11-11-11-11-10-10-10-10-10-10-10-10-11-11-11-11-10-10-10-10-
A-|-6-6-6-6--9--9--9--9--8--8--8--8--8--8--8--8--9--9--9--9--8--8--8--8-
E-|---------------------------------------------------------------------


e-|---------------------------------------------------------------------
B-|---------------------------------------------------------------------
G-|-8-8-8-8-8-8-8-8-6-6-6-6-6-6-6-6-10-10-10-10-10-10-10-10-------------
D-|-8-8-8-8-8-8-8-8-6-6-6-6-6-6-6-6-10-10-10-10-10-10-10-10-9-9-9-8-8-8-
A-|-6-6-6-6-6-6-6-6-4-4-4-4-4-4-4-4--8--8--8--8--8--8--8--8-9-9-9-8-8-8-
E-|---------------------------------------------------------7-7-7-6-6-6-


e-|----------------------------------------------------------
B-|----------------------------------------------------------
G-|--8-8-8-8-8-8-8-8-6-6-6-6-6-6-6-6-10-10-10-10-10-10-10-10-
D-|--8-8-8-8-8-8-8-8-6-6-6-6-6-6-6-6-10-10-10-10-10-10-10-10-
A-|--6-6-6-6-6-6-6-6-4-4-4-4-4-4-4-4--8--8--8--8--8--8--8--8-
E-|----------------------------------------------------------


e-|---------------------------------------------------|
B-|---------------------------------------------------|
G-|-13-13-13-13-13-11-11-11-11-11-9-9-9-9-9-8-7-8-7-8-|
D-|-13-13-13-13-13-11-11-11-11-11-9-9-9-9-9-8-7-8-7-8-|
A-|-11-11-11-11-11--9--9--9--9--9-7-7-7-7-7-6-5-6-5-6-|
E-|---------------------------------------------------|


I hope I tabbed this all out correctly... I'd be very pissed off if I 
didn't considering how long it took me to do this... Have fun...





Comments


Popular Ten Foot Pole tabs & chords
Closer To Grey Bass Tabs
Damage Bass Tabs
Damage 1 Bass Tabs
Final Hours Bass Tabs
I Won't Complain Today 1 Bass Tabs
John Bass Tabs
John Tabs
Never Look Back Tabs
The Getaway 1 Tabs
Tunnel's End Tabs


Song lyrics



↑ Back to top | Tablatures and chords are parodies/interpretations of the original songs. You may use it for private study, scholarship, research or language learning purposes only
© 2014 AZChords.com Contact us | Privacy policy | DMCA | Add/correct tabs | Request tabs | Top 50 tabs