» » »

Broken Bubble Tabs (ver.1)

Artists:  A B C D E F G H I J K L M N O P Q R S T U V W X Y Z # 

Broken Bubble Tabs (ver.1)

Ten Foot Pole
Rating:
0/5 (0 votes)

Hard to play? Try these video lessons and learn fast.
                
Intro:(acoustic guitar) 
e-|-------------------------------------------------------------------| 
B-|-------------------------------------------------------------------| 
G-|-------------------------------------------------------------------| 
D-|-11-11-11-11-11----------------------------------------------------| 
A-|-9--9--9--9--9---8-8-8-8-8--9-9-9-9-9--4-4-4-4-4-------------------| 
E-|-----------------6-6-6-6-6--7-7-7-7-7--2-2-2-2-2-------------------| 


Intro:(Electric Guitar #1) 
e-|-------------------------------------------------------------------| 
B-|-------------------------------------------------------------------| 
G-|-------------------------------------------------------------------| 
D-|-11-11-11-11-11----------------------------------------------------| 
A-|-9--9--9--9--9---8-8-8-8-8--9-9-9-9-9--4-4-4-4-4-------------------| 
E-|-----------------6-6-6-6-6--7-7-7-7-7--2-2-2-2-2-------------------| 


Intro:(Electric Guitar #2 
e-|-------------------------------------------------------------------| 
B-|-------------------------------------------------------------------| 
G-|--11-11-11-11-11--10-10-10-10-10--8-8-8-8-8--6-6-6-6-6-------------| 
D-|-------------------------------------------------------------------| 
A-|-------------------------------------------------------------------| 
E-|-------------------------------------------------------------------| 

e-|-------------------------------------------------------------------| 
B-|---------------------------------------------11-11-11-11-11--------| 
G-|--11-11-11-11-11--10-10-10-10-10--8-8-8-8-8------------------------| 
D-|-------------------------------------------------------------------| 
A-|-------------------------------------------------------------------| 
E-|-------------------------------------------------------------------| 


Verse:Both guitars 
e-|-------------------------------------------------------------------| 
B-|-------------------------------------------------------------------| 
G-|-------------------------------------------------------------------| 
D-|-11-11-11-11-11--6-6-6-6-6--3-3-3-3-3--4-4-4-4-4-------------------| 
A-|-9--9--9--9--9---4-4-4-4-4--1-1-1-1-1--2-2-2-2-2--4-4-4-4-4--------| 
E-|--------------------------------------------------2-2-2-2-2--------| 


Chorus:                             <--Palm Mute-> 
e-|-------------------------------------------------------------------| 
B-|-------------------------------------------------------------------| 
G-|-------------------------------------------------------------------| 
D-|-8-8-8-8-8-8-8-8-8-8---6-6-6-6-6--6-6-6-6-6-6-6--------------------| 
A-|-6-6-6-6-6-6-6-6-6-6---4-4-4-4-4--4-4-4-4-4-4-4--------------------| 
E-|-------------------------------------------------------------------| 

e-|-------------------------------------------------------------------| 
B-|-------------------------------------------------------------------| 
G-|-------------------------------------------------------------------| 
D-|-8-8-8-8-8-8-8-8-8-8---4-4-4-4-4--6-6-6-6-6------------------------| 
A-|-6-6-6-6-6-6-6-6-6-6---2-2-2-2-2--4-4-4-4-4------------------------| 
E-|-------------------------------------------------------------------| 



Solo: (Acoustic guitar) 
e-|-------------------------------------------------------------------| 
B-|-------------------------------------------------------------------| 
G-|-------------------------------------------------------------------| 
D-|-11-11-11-11-11----------------------------------------------------| 
A-|-9--9--9--9--9---8-8-8-8-8--9-9-9-9-9--4-4-4-4-4-------------------| 
E-|-----------------6-6-6-6-6--7-7-7-7-7--2-2-2-2-2-------------------| 


Solo:(Electric Guitar #1) 
e-|-------------------------------------------------------------------| 
B-|-------------------------------------------------------------------| 
G-|-------------------------------------------------------------------| 
D-|-11-11-11-11-11----------------------------------------------------| 
A-|-9--9--9--9--9---8-8-8-8-8--9-9-9-9-9--4-4-4-4-4-------------------| 
E-|-----------------6-6-6-6-6--7-7-7-7-7--2-2-2-2-2-------------------| 


Solo (Lead Guitar) ???????????? 

OK NOW HERE'S THE ORDER YOU PLAY THESE: 

INTRO (ACOUSTIC) X8 
INTRO (BOTH ELECTRICS START AFTER ACOUSTIC PLAYS IT'S INTRO TWICE) X6 
VERSE X4 
CHORUS X2 
VERSE X4 
SOLO x4 
CHORUS X2
            
Hard to play? Try these video lessons and learn fast. | Correct




comments powered by Disqus
↑ Back to top | Tablatures and chords are parodies/interpretations of the original songs. You may use it for private study, scholarship, research or language learning purposes only