>
 >
Pushin Foward Back

Pushin Foward Back Guitar Tabs

Temple Of The Dog - Pushin Foward Back chords, tabs, tablatures, lyrics

Guitar lessons | Add/correct | Request | Top 50 tabs Artists:  A B C D E F G H I J K L M N O P Q R S T U V W X Y Z 0-9

Pushin Foward Back Guitar Tabs – Temple Of The Dog

CD, Sheet music, Poster

Do you like Pushin Foward Back? Share with your friends now
Tabs
                              PUSHIN' FORWARD BACK
                        As recorded by Temple Of The Dog
                     (From the 1991 Album TEMPLE OF THE DOG)

Words by Christopher J. Cornell

Music by Jeff Ament & Stone Gossard

         C#m7                   B
     9 11 9 9 9 9          7 9 9 8 7 7

Gtr I (E A D G B E) - 'Stone Gossard - Rhythm w/dist'
Gtr II (E A D G B E) - 'Mike McCready - Rhythm w/dist'
Gtr III (E A D G B E) - 'Lead w/dist'

   Intro
    Q=96
   7/8
    Gtr I
                             3x
||--7-7-7-7---7-(7)-7-7-7-7--||-7-7-7-7---7-(7)-7-7-7-7-||
||o-7-7-7-7---7-(7)-7-7-7-7-o||-7-7-7-7---7-(7)-7-7-7-7-||
||--8-8-8-8---8-(8)-8-8-8-8--||-8-8-8-8---8-(8)-8-8-8-8-||
||--9-9-7-9---9-(9)-9-7-9-7--||-9-9-7-9---9-(9)-9-7-9-7-||
||o-9-9-7-9-x-9-(9)-9-7-9-7-o||-9-9-7-9-x-9-(9)-9-7-9-7-||
||--7-7-7-7-x-7-(7)-7-7-7-7--||-7-7-7-7-x-7-(7)-7-7-7-7-||
|
|   Gtr III
|                                            <
|                            3x
||---------------------------||-------------------------||
||o-------------------------o||-------------------------||
||---------------------------||-------------------------||
||---------------------------||--------------9----------||
||o-------------------------o||-------------------------||
||---------------------------||-------------------------||


|--7--7--7---7----7---(7)--7---7--7---7-|--7---7---7-7------7-(7)--7-7--7---7-|
|--7--7--7---7----7---(7)--7---7--7---7-|--7---7---7-7------7-(7)--7-7--7---7-|
|--8--8--8---8----8---(8)--8---8--8---8-|--8---8---8-8------8-(8)--8-8--8---8-|
|--9--9--7---9----9---(9)--9---7--9---7-|--9---9---7-9------9-(9)--9-7--9---7-|
|--9--9--7---9-x--9---(9)--9---7--9---7-|--9---9---7-9--x---9-(9)--9-7--9---7-|
|--7--7--7---7-x--7---(7)--7---7--7---7-|--7---7---7-7--x---7-(7)--7-7--7---7-|
|
|        \1/      \1/      \1/    \1/          \1/      \1/    \1/      \1/
|---------------------------------------|-------------------------------------|
|---------------------------------------|-------------------------------------|
|---------------------------------------|-------------------------------------|
|-(9)---(9)------(9)--(9)-(9)----(9)----|-(9)-(9)------(9)----(9)------(9)----|
|---------------------------------------|-------------------------------------|
|---------------------------------------|-------------------------------------|


|--7--7--7---7---7-(7)--7------7-7-7-|--7--7-7-7---7-(7)--7------7--7---7--|
|--7--7--7---7---7-(7)--7------7-7-7-|--7--7-7-7---7-(7)--7------7--7---7--|
|--8--8--8---8---8-(8)--8------8-8-8-|--8--8-8-8---8-(8)--8------8--8---8--|
|--9--9--7---9---9-(9)--9------7-9-7-|--9--9-7-9---9-(9)--9------7--9---7--|
|--9--9--7---9-x-9-(9)--9------7-9-7-|--9--9-7-9-x-9-(9)--9------7--9---7--|
|--7--7--7---7-x-7-(7)--7------7-7-7-|--7--7-7-7-x-7-(7)--7------7--7---7--|
|
|        \1/        \1/    \1/                        \1/    \1/    \1/
|------------------------------------|-------------------------------------|
|------------------------------------|-------------------------------------|
|------------------------------------|-------------------------------------|
|-(9)---(9)--------(9)----(9)--------|-(9)-----------(9)----(9)----(9)-----|
|------------------------------------|-------------------------------------|
|------------------------------------|-------------------------------------|


|--7--7-7-7---7-(7)---7-7-7-7-|--7--7-7-7---7-(7)-7--7-7-7-|
|--7--7-7-7---7-(7)---7-7-7-7-|--7--7-7-7---7-(7)-7--7-7-7-|
|--8--8-8-8---8-(8)---8-8-8-8-|--8--8-8-8---8-(8)-8--8-8-8-|
|--9--9-7-9---9-(9)---9-7-9-7-|--9--9-7-9---9-(9)-9--7-9-7-|
|--9--9-7-9-x-9-(9)---9-7-9-7-|--9--9-7-9-x-9-(9)-9--7-9-7-|
|--7--7-7-7-x-7-(7)---7-7-7-7-|--7--7-7-7-x-7-(7)-7--7-7-7-|
|
|                \0.5
|-----------------------------|----------------------------|
|-----------------------------|----------------------------|
|-----------------------------|----------------------------|
|-(9)-----------(9)-----------|-(9)------------------------|
|-----------------------------|----------------------------|
|-----------------------------|----------------------------|


|-7-7-7-7---7-(7)-7-7-7-7-|--7-7-7-7---7-(7)\---------||
|-7-7-7-7---7-(7)-7-7-7-7-|--7-7-7-7---7-(7)\---------||
|-8-8-8-8---8-(8)-8-8-8-8-|--8-8-8-8---8-(8)\---------||
|-9-9-7-9---9-(9)-9-7-9-7-|--9-9-7-9---9-(9)\---------||
|-9-9-7-9-x-9-(9)-9-7-9-7-|--9-9-7-9-x-9-(9)\---------||
|-7-7-7-7-x-7-(7)-7-7-7-7-|--7-7-7-7-x-7-(7)\--x-x----||
|
|                            ~~
|-------------------------|---------------------------||
|-------------------------|---------------------------||
|-------------------------|---------------------------||
|-------------------------|---------------------------||
|-------------------------|---------------------------||
|-------------------------|-10-----------10\----------||


   Verse 1, 2
    Gtrs I, II
    PM-------------------------------------------------------
||------------------------|---------------------------------|
||o-----------------------|---------------------------------|
||------------------------|---------------------------------|
||------------------------|---------------------------------|
||o-2-2-0-2-2-(2)-2-0-2-0-|-2-2-0-2-2-(2)-2------0---2---0--|
||------------------------|---------------------------------|
|
|   Gtr III
||------------------------|---------------------------------|
||o-----------------------|---------------------------------|
||------------------------|---------------------------------|
||------------------------|---------------------------------|
||o-----------------------|-----------------<7>-<7>-<7>-<7>-|
||------------------------|---------------------------------|


 --------------------------------------------------|
|----------------------------|--------------------------|
|----------------------------|--------------------------|
|----------------------------|--------------------------|
|----------------------------|--------------------------|
|--2---2-0-2--2-(2)-2--0-2-0-|-2-2-0-2-2-(2)-2-0-2-0----|
|----------------------------|--------------------------|
|
|----------------------------|--------------------------|
|----------------------------|--------------------------|
|----------------------------|--------------------------|
|----------------------------|--------------------------|
|-<7>\-----------------------|--------------------------|
|----------------------------|--------------------------|


  PM-----------------------------------------------
|-----------------------|-------------------------|
|-----------------------|-------------------------|
|-----------------------|-------------------------|
|-----------------------|-------------------------|
|-2-2-0-2-2-(2)-2-0-2-0-|--2--2-0-2-2-(2)-2-0-2-0-|
|-----------------------|-------------------------|
|
| <                        >
| ~~~~~~~~~~~~~~~~~~~~~~~~~~~~
|-----------------------|-------------------------|
|-----------------------|-------------------------|
|-----------------------|-------------------------|
|-9---------(9)---------|-(9)---------------------|
|-----------------------|-------------------------|
|-----------------------|-------------------------|


 ------------------------------------------------|
|-----------------------|--------------------------|
|-----------------------|--------------------------|
|-----------------------|--------------------------|
|-----------------------|--------------------------|
|-2-2-0-2-2-(2)-2-0-2-0-|--2---2-0-2-2-(2)-2-0-2-0-|
|-----------------------|--------------------------|
|
| <
|            ~~~~~~~~~~~~~~~~~~
|-----------------------|--------------------------|
|-----------------------|--------------------------|
|-----------------------|---------------x\---------|
|-9---------(9)---------|-(9)\----------x\---------|
|-----------------------|--------------------------|
|-----------------------|--------------------------|


|-----------------|-----------------|-----------------|-----------------|
|-----------------|-----------------|-----------------|-----------------|
|-----------------|-----------------|-----------------|-----------------|
|-4---4---4-------|-4---4---4-------|-4---4---4-------|-4---4---4-------|
|-2p0-2p0-2p0-----|-2p0-2p0-2p0-----|-2p0-2p0-2p0-----|-2p0-2p0-2p0-----|
|-----------------|-----------------|-----------------|-----------------|


  Gtr I
|-----------------------------|----------------------------|
|-----------------------------|----------------------------|
|-----------------------------|----------------------------|
|-4---4---4-------------------|-4---4---4------------------|
|-2p0-2p0-2p0-----------------|-2p0-2p0-2p0----------------|
|-----------------------------|----------------------------|
|
| Gtr II
|-----------------------------|----------------------------|
|-----------------------------|----------------------------|
|-----------------------------|-7---7---7------------------|
|-4---4---4-------------------|----------------------------|
|-2p0-2p0-2p0-----------------|-5---5---5------------------|
|-----------------------------|----------------------------|
|
| Gtr III
|             <                             <
|-----------------------------|----------------------------|
|-------------9-(9)b10===(9)r-|-------------7-(7)b8===(7)r-|
|-------------9-(9)b11===(9)r-|-------------7-(7)b9===(7)r-|
|-----------------------------|----------------------------|
|-----------------------------|----------------------------|
|-----------------------------|----------------------------|


|-----------------|---------------------------||
|-----------------|---------------------------||
|-----------------|---------------9-(9)-9-7---||
|-4---4---4-------|-4---4---4-----9-(9)-9-7---||
|-2p0-2p0-2p0-----|-2p0-2p0-2p0---7-(7)-7-5---||
|-----------------|-0---0---0---0-------------||
|
|-----------------|---------------------------||
|-----------------|---------------------------||
|-4---4---4-------|---------------9-(9)-9-7---||
|-----------------|-4---4---4-----9-(9)-9-7---||
|-2p0-2p0-2p0-----|-2p0-2p0-2p0---7-(7)-7-5---||
|-----------------|-0---0---0---0-------------||
|
|-----------------|---------------------------||
|-----------------|---------------------------||
|-----------------|---------------------------||
|-----------------|---------------------------||
|-----------------|---------------------------||
|-----------------|---------------------------||


 Chorus
|-7-7-7-7---7-(7)-7-7-7-7-|-7-7-7-7---7-(7)-7-7-7-7-|
|-7-7-7-7---7-(7)-7-7-7-7-|-7-7-7-7---7-(7)-7-7-7-7-|
|-8-8-8-8---8-(8)-8-8-8-8-|-8-8-8-8---8-(8)-8-8-8-8-|
|-9-9-7-9---9-(9)-9-7-9-7-|-9-9-7-9---9-(9)-9-7-9-7-|
|-9-9-7-9-x-9-(9)-9-7-9-7-|-9-9-7-9-x-9-(9)-9-7-9-7-|
|-7-7-7-7-x-7-(7)-7-7-7-7-|-7-7-7-7-x-7-(7)-7-7-7-7-|


|-7-7-7-7---7-(7)-7-7-7-7-|-7-7-7-7---7-(7)-7-7-7-7----|
|-7-7-7-7---7-(7)-7-7-7-7-|-7-7-7-7---7-(7)-7-7-7-7----|
|-8-8-8-8---8-(8)-8-8-8-8-|-8-8-8-8---8-(8)-8-8-8-8----|
|-9-9-7-9---9-(9)-9-7-9-7-|-9-9-7-9---9-(9)-9-7-9-7----|
|-9-9-7-9-x-9-(9)-9-7-9-7-|-9-9-7-9-x-9-(9)-9-7-9-7----|
|-7-7-7-7-x-7-(7)-7-7-7-7-|-7-7-7-7-x-7-(7)-7-7-7-7----|


|-7-7-7-7---7-(7)-7-7-7-7-|-7-7-7-7---7-(7)-7-7-7-7-|
|-7-7-7-7---7-(7)-7-7-7-7-|-7-7-7-7---7-(7)-7-7-7-7-|
|-8-8-8-8---8-(8)-8-8-8-8-|-8-8-8-8---8-(8)-8-8-8-8-|
|-9-9-7-9---9-(9)-9-7-9-7-|-9-9-7-9---9-(9)-9-7-9-7-|
|-9-9-7-9-x-9-(9)-9-7-9-7-|-9-9-7-9-x-9-(9)-9-7-9-7-|
|-7-7-7-7-x-7-(7)-7-7-7-7-|-7-7-7-7-x-7-(7)-7-7-7-7-|


                           1.
|-7-7-7-7---7-(7)-7-7-7-7-|-7-7-7-7---7-(7)\-------||
|-7-7-7-7---7-(7)-7-7-7-7-|-7-7-7-7---7-(7)\------o||
|-8-8-8-8---8-(8)-8-8-8-8-|-8-8-8-8---8-(8)\-------||
|-9-9-7-9---9-(9)-9-7-9-7-|-9-9-7-9---9-(9)\-------||
|-9-9-7-9-x-9-(9)-9-7-9-7-|-9-9-7-9-x-9-(9)\------o||
|-7-7-7-7-x-7-(7)-7-7-7-7-|-7-7-7-7-x-7-(7)\--x-x--||


                              Bridge
  2.
 4/4
  Gtrs I, II
|-7-7-7-7---7-(7)-7-7-7-----||-------------------------------|
|-7-7-7-7---7-(7)-7-7-7-----||-------------------------------|
|-8-8-8-8---8-(8)-8-8-8-----||-------------------------------|
|-9-9-7-9---9-(9)-9-7-9-----||--------/11-9-(9)--------------|
|-9-9-7-9-x-9-(9)-9-7-9-----||------------------11-(11)\-/x\-|
|-7-7-7-7-x-7-(7)-7-7-7-7-8-||-9-(9)\------------------------|


|----------------------------------|
|----------------------------------|
|----------------------------------|
|----9-----------------------------|
|-11---11-10-9---------------------|
|--------------12-9-(9)-(9)\--7-8--|


                               C#m7                 N.C.
                                                   7/8
                             Gtr II
                                |               ||
                                /               //

                             Gtr I
                                                         <
                                     ~~~~
|-----------------------9--9-|--9---(9)-x---------|----------|
|-----------------------9--9-|--9---(9)---x-------|------9---|
|-----------------------9--9-|--9---(9)-----x-----|------9---|
|--------/11-9-(9)------9--9-|--9---(9)-----------|----------|
|------------------11--11-11-|-11--(11)-----------|----------|
|-9-(9)\----------------9--9-|--9---(9)-----------|----------|


                                         B
                             4/4
                                         |
                                         o

              <
   \1                  \1
|-----------|---------------|----------------|--------------------------------|
|-(9)-------|-7--(7)--(7)---|----------------|--------------------------------|
|-(9)-------|-7--(7)--(7)---|------x/--------|--------------------------------|
|-----------|---------------|------x/-9\-----|--------/11-9-(9)---------------|
|-----------|---------------|----------------|------------------11-(11)\-/x\--|
|-----------|---------------|------------5h7-|-9-(9)\-------------------------|


                                                                    C#m7
                                                                  Gtr I
                                                                     |
                                                                     /

                                                                  Gtr II
                                                                     ~~
|----------------------------------|-------------------------9--9-|--9----|
|----------------------------------|-------------------------9--9-|--9----|
|----------------------------------|-------------------------9--9-|--9----|
|----9-----------------------------|----------/11-9-(9)------9--9-|--9----|
|-11---11-10-9----------------9-10-|-11-(11)\-----------11--11-11-|-11----|
|--------------12-9-(9)-(9)\--7--8-|--9--(9)\----------------9--9-|--9----|


 Guitar Solo
 7/8
  Gtr III
|------------------------------------------------------------|
|-10b12=======================(10)r--------------------------|
|------------------------------------------------------------|
|------------------------------------------------------------|
|------------------------------------------------------------|
|------------------------------------------------------------|
|
| Gtr II
|  ~~~~~~
|----------7-10---7------------------------------------------|
|-10b12-------------10-7--------7--------7-10-7------7-------|
|--------------------------10-------10------------10---10-10-|
|------------------------------------------------------------|
|------------------------------------------------------------|
|------------------------------------------------------------|
|
| Gtr I
|  PM---------------------------------------------------------
|--7-----7-7----7--------7-----(7)-----7--------7----7--7----|
|--7-----7-7----7--------7-----(7)-----7--------7----7--7----|
|--8-----8-8----8--------8-----(8)-----8--------8----8--8----|
|--9-----9-7----9--------9-----(9)-----9--------7----9--7----|
|--9-----9-7----9----x---9-----(9)-----9--------7----9--7----|
|--7-----7-7----7----x---7-----(7)-----7--------7----7--7----|


|----------------------------------------------------------|
|-10b12===============================(10)r----------------|
|----------------------------------------------------------|
|----------------------------------------------------------|
|----------------------------------------------------------|
|----------------------------------------------------------|
|
|-------------7--------------------------------------------|
|--7--------7---10-7---------------------------------------|
|--------10----------10-9---7-9-7-------7---9-9-9-9b10==9r-|
|-----------------------------------9----------------------|
|----------------------------------------------------------|
|----------------------------------------------------------|
|
|-------------------------------------------------------|
|--7----------7-------7---7-------7----(7)--7---7-7-----7--|
|--7----------7-------7---7-------7----(7)--7---7-7-----7--|
|--8----------8-------8---8-------8----(8)--8---8-8-----8--|
|--9----------9-------7---9-------9----(9)--9---7-9-----7--|
|--9----------9-------7---9---x---9----(9)--9---7-9-----7--|
|--7----------7-------7---7---x---7----(7)--7---7-7-----7--|


|----------------------------------------------------|
|-10b12=====================(10)r--------------------|
|----------------------------------------------------|
|----------------------------------------------------|
|----------------------------------------------------|
|----------------------------------------------------|
|
|----------------------------------------------------|
|----------------------------------------------------|
|--9b11--9b11-9b11---9b11-----7-------7--------------|
|---------------------------------9-----9p7----------|
|-------------------------------------------9p7------|
|-----------------------------------------------10---|
|
|  PM-------------------------------------------------
|--7-----7----7----7------7--(7)----7-------7----7-7-|
|--7-----7----7----7------7--(7)----7-------7----7-7-|
|--8-----8----8----8------8--(8)----8-------8----8-8-|
|--9-----9----7----9------9--(9)----9-------7----9-7-|
|--9-----9----7----9-x----9--(9)----9-------7----9-7-|
|--7-----7----7----7-x----7--(7)----7-------7----7-7-|


                                                              ~
|-----------------------------------------------------------|----------------------------------|
|-10b12-----------------------------------------------------|----------------------------------|
|--9b11---------------------------------------------9-------|-7-------------------(7)h9p==7----|
|-----------------------------------------------------------|----------------------------------|
|-----------------------------------------------------------|----------------------------------|
|-----------------------------------------------------------|----------------------------------|
|
|--7--------------------10-------------14-------14-------14-|----------------------------------|
|-------10p7-10-7-10s12----12-17-17b19----17b19----17b19----|----------------------------------|
|-----------------------------------------------------------|----------------------------------|
|-----------------------------------------------------------|----------------------------------|
|-----------------------------------------------------------|----------------------------------|
|-----------------------------------------------------------|----------------------------------|
|
|---------------------------------------------------------------------------------------|
|--7----------7-------7--7-----7-(7)----7--------7--7-----7-|-7-7-7-7---7-(7)-7-7--7----7------|
|--7----------7-------7--7-----7-(7)----7--------7--7-----7-|-7-7-7-7---7-(7)-7-7--7----7------|
|--8----------8-------8--8-----8-(8)----8--------8--8-----8-|-8-8-8-8---8-(8)-8-8--8----8------|
|--9----------9-------7--9-----9-(9)----9--------7--9-----7-|-9-9-7-9---9-(9)-9-7--9----7------|
|--9----------9-------7--9--x--9-(9)----9--------7--9-----7-|-9-9-7-9-x-9-(9)-9-7--9----7------|
|--7----------7-------7--7--x--7-(7)----7--------7--7-----7-|-7-7-7-7-x-7-(7)-7-7--7----7------|


  ~                           ~~~~~~~~~~~~~~~~~~~~~~~~
|-------------------------|-------------------------------------------|
|-------------------------|-------------------------------------------|
|-6-------------------7s==|=9-4----------------(4)--------------------|
|-------------------------|-------------------------------------------|
|-------------------------|-------------------------------------------|
|-------------------------|-------------------------------------------|
|
|-------------------------|-----10b11====10-10-10b12==10-10-10-10-10r-|
|-------------------------|-------------------------------------------|
|-------------------------|-------------------------------------------|
|-------------------------|-------------------------------------------|
|-------------------------|-------------------------------------------|
|-------------------------|-------------------------------------------|
|
| PM-------------------------------------------------------------------
|-7-7-7-7---7-(7)-7-7-7-7-|-7-7--7-----7-----7-(7)-----7-----7--7--7--|
|-7-7-7-7---7-(7)-7-7-7-7-|-7-7--7-----7-----7-(7)-----7-----7--7--7--|
|-8-8-8-8---8-(8)-8-8-8-8-|-8-8--8-----8-----8-(8)-----8-----8--8--8--|
|-9-9-7-9---9-(9)-9-7-9-7-|-9-9--7-----9-----9-(9)-----9-----7--9--7--|
|-9-9-7-9-x-9-(9)-9-7-9-7-|-9-9--7-----9--x--9-(9)-----9-----7--9--7--|
|-7-7-7-7-x-7-(7)-7-7-7-7-|-7-7--7-----7--x--7-(7)-----7-----7--7--7--|


         ~~~~~~~~~~~~~
|------------------------------------------------------------------||
|------------------------------------------------------------------||
|--4--6--7--------(7)------------------------------------6h==7h====||
|------------------------------------------------------------------||
|------------------------------------------------------------------||
|------------------------------------------------------------------||
|
|-10-10-10-7----7-10--7----7-10-7----7-10--7----7-10---(10)\-------||
|------------10---------10--------10---------10--------------------||
|------------------------------------------------------------------||
|------------------------------------------------------------------||
|------------------------------------------------------------------||
|------------------------------------------------------------------||
|
|------------------------------------------------------------|
|--7-----7---------7-----7---------7---(7)----7------7---7---7-----||
|--7-----7---------7-----7---------7---(7)----7------7---7---7-----||
|--8-----8---------8-----8---------8---(8)----8------8---8---8-----||
|--9-----9---------7-----9---------9---(9)----9------7---9---7-----||
|--9-----9---------7-----9----x----9---(9)----9------7---9---7-----||
|--7-----7---------7-----7----x----7---(7)----7------7---7---7-----||


 Out-Chorus
|-------------------------------------------------|
|---------------10-------------10------------10---|
|-9----(9)b11-------9b11==(9)r----9b11==(9)r------|
|-------------------------------------------------|
|-------------------------------------------------|
|-------------------------------------------------|
|
|-------------------------------------------------|
|---x/--------------------------------------------|
|-------------------------------------------------|
|-------------------------------------------------|
|-------------------------------------------------|
|------------------/9-----(9)---7-------------5h7-|
|
| PM-----------------------------------------------
|-7-7---7-----7-----7-----(7)---7--------7----7-7-|
|-7-7---7-----7-----7-----(7)---7--------7----7-7-|
|-8-8---8-----8-----8-----(8)---8--------8----8-8-|
|-9-9---7-----9-----9-----(9)---9--------7----9-7-|
|-9-9---7-----9--x--9-----(9)---9--------7----9-7-|
|-7-7---7-----7--x--7-----(7)---7--------7----7-7-|


|------------------------------------------------------------------------|
|------------10------------10------------10-------------10---------------|
|-9b11==(9)r----9b11==(9)r----9b11==(9)r-----9b11==(9)r----9b11r(9)p==7--|
|------------------------------------------------------------------------|
|------------------------------------------------------------------------|
|------------------------------------------------------------------------|
|
|------------------------------------------------------------------------|
|------------------------------------------------------------------------|
|------------------------------------------------------------------------|
|-9-----------9--------7----9--------9---(9)--------9--------------------|
|-9-----------9--------7----9-x------9---(9)--------9------x--------x----|
|-7-----------7--------7----7-x------7---(7)--------7------x--------x----|
|
|-------------------------------------------------------------------|
|-7-----------7--------7----7--------7---(7)-7-----------7-7--------7----|
|-7-----------7--------7----7--------7---(7)-7-----------7-7--------7----|
|-8-----------8--------8----8--------8---(8)-8-----------8-8--------8----|
|-9-----------9--------7----9--------9---(9)-9-----------7-9--------7----|
|-9-----------9--------7----9-x------9---(9)-9-----------7-9--------7----|
|-7-----------7--------7----7-x------7---(7)-7-----------7-7--------7----|


  Gtr III
  ~
|---------------------------|-------------------------------------|
|---------------------------|---------------------------7-7-7-7-7-|
|---------------------------|---------------------------7-7-7-7-7-|
|-9---------7-(7)-9---(9)---|-9h11h12-11-(11)-9---9-(9)-----------|
|---------------------------|-------------------------------------|
|---------------------------|-------------------------------------|
|
| Gtrs I, II
| PM---------------------------------------------------------------
|-7-7-7-7---7-(7)-7-7--7--7-|-7-----7------7--7---7-(7)-7---7-7-7-|
|-7-7-7-7---7-(7)-7-7--7--7-|-7-----7------7--7---7-(7)-7---7-7-7-|
|-8-8-8-8---8-(8)-8-8--8--8-|-8-----8------8--8---8-(8)-8---8-8-8-|
|-9-9-7-9---9-(9)-9-7--9--7-|-9-----9------7--9---9-(9)-9---7-9-7-|
|-9-9-7-9-x-9-(9)-9-7--9--7-|-9-----9------7--9-x-9-(9)-9---7-9-7-|
|-7-7-7-7-x-7-(7)-7-7--7--7-|-7-----7------7--7-x-7-(7)-7---7-7-7-|


               T
|-----------------------------|
|-7-7-7---7-7-(7tr14)---------|
|-7-7-7---7-7-(7tr14)---------|
|-----------------------------|
|-----------------------------|
|-----------------------------|
|
|---------------------------|
|-7-7-7-7---7-(7)-----7-7-7-7-|
|-7-7-7-7---7-(7)-----7-7-7-7-|
|-8-8-8-8---8-(8)-----8-8-8-8-|
|-9-9-7-9---9-(9)-----9-7-9-7-|
|-9-9-7-9-x-9-(9)-----9-7-9-7-|
|-7-7-7-7-x-7-(7)-----7-7-7-7-|


   T                 T
|-------------------------------|--------------------------------7-------------|
|-(7tr14)------------x\---------|-10b12---------10b12==(10)r(10)---10-7-10---7-|
|-(7tr14)------------x\---------|----------------------------------------------|
|-------------------------------|----------------------------------------------|
|-------------------------------|----------------------------------------------|
|-------------------------------|----------------------------------------------|
|
|  PM---------------------------------------------------------------------------
|--7------7-7-7---7-(7)-7-7-7-7-|--7----7-7-7----7------(7)---7-----7-7----7---|
|--7------7-7-7---7-(7)-7-7-7-7-|--7----7-7-7----7------(7)---7-----7-7----7---|
|--8------8-8-8---8-(8)-8-8-8-8-|--8----8-8-8----8------(8)---8-----8-8----8---|
|--9------9-7-9---9-(9)-9-7-9-7-|--9----9-7-9----9------(9)---9-----7-9----7---|
|--9------9-7-9-x-9-(9)-9-7-9-7-|--9----9-7-9-x--9------(9)---9-----7-9----7---|
|--7------7-7-7-x-7-(7)-7-7-7-7-|--7----7-7-7-x--7------(7)---7-----7-7----7---|


|-----------------------------------------|
|----7------------------------------------|
|-10---10-9-7-9-7---7---------------------|
|-----------------9-----9-7-9-7-9-(9)\----|
|-----------------------------------------|
|-----------------------------------------|
|
|---------------------------------|
|--7--------7-----7---7-------7---(7)\----|
|--7--------7-----7---7-------7---(7)\----|
|--8--------8-----8---8-------8---(8)\----|
|--9--------9-----7---9-------9---(9)\----|
|--9--------9-----7---9---x---9---(9)\----|
|--7--------7-----7---7---x---7---(7)\----|


  Gtr I
|-7--(7)\-----|--------|-----|
|-7--(7)\-----|--------|-----|
|-7--(7)\-----|--------|-----|
|-8--(8)\-----|--------|-----|
|-9--(9)\-----|--------|-----|
|-7--(7)\-----|--------|-----|


  Gtr III
               ~~~~~~~~~~~~~~~~~~~~~~~~~~~~~~~~~~~~~~~~~~~~~~~~~~~~
|------------|------------------------------|------------------------------|
|-----x\-----|------------------------------|------------------------------|
|-----x\-----|-9b11============(9)r---------|-9b11============(9)r---------|
|--------x\--|------------------------------|------------------------------|
|--------x\--|------------------------------|------------------------------|
|------------|------------------------------|------------------------------|
|
| Gtrs I, II
|              PM--------------------------------------------------------|
|------------|-7-----7-7-7---7-(7)--7-7-7-7-|-7-----7-7-7---7-(7)--7-7-7-7-|
|------------|-7-----7-7-7---7-(7)--7-7-7-7-|-7-----7-7-7---7-(7)--7-7-7-7-|
|------------|-8-----8-8-8---8-(8)--8-8-8-8-|-8-----8-8-8---8-(8)--8-8-8-8-|
|------------|-9-----9-7-9---9-(9)--9-7-9-7-|-9-----9-7-9---9-(9)--9-7-9-7-|
|------------|-9-----9-7-9-x-9-(9)--9-7-9-7-|-9-----9-7-9-x-9-(9)--9-7-9-7-|
|------------|-7-----7-7-7-x-7-(7)--7-7-7-7-|-7-----7-7-7-x-7-(7)--7-7-7-7-|


  ~~~~~~~~~~~~~~~~~~~~~~~~~~~~~~~~~~~~
|------------------------------|---------------------------------|
|------------------------------|---------------------------------|
|-9b11============(9)r---------|-9b11-----------------9---9b11---|
|------------------------------|--------------9-(9)--------------|
|------------------------------|---------------------------------|
|------------------------------|---------------------------------|
|
| PM--------------------------------------------------------------
|-7-----7-7-7---7-(7)--7-7-7-7-|-7----7-7-7---7-(7)-7---7-7----7-|
|-7-----7-7-7---7-(7)--7-7-7-7-|-7----7-7-7---7-(7)-7---7-7----7-|
|-8-----8-8-8---8-(8)--8-8-8-8-|-8----8-8-8---8-(8)-8---8-8----8-|
|-9-----9-7-9---9-(9)--9-7-9-7-|-9----9-7-9---9-(9)-9---7-9----7-|
|-9-----9-7-9-x-9-(9)--9-7-9-7-|-9----9-7-9-x-9-(9)-9---7-9----7-|
|-7-----7-7-7-x-7-(7)--7-7-7-7-|-7----7-7-7-x-7-(7)-7---7-7----7-|


  ~~~~~~~~~~~~~~~~~~~~~~
|-------------------------------|
|----------------10b12==========|
|-9b11--------------------------|
|-------------------------------|
|-------------------------------|
|-------------------------------|
|
|-----------------------------|
|-7----7-7-7---7-(7)----7-7-7-7-|
|-7----7-7-7---7-(7)----7-7-7-7-|
|-8----8-8-8---8-(8)----8-8-8-8-|
|-9----9-7-9---9-(9)----9-7-9-7-|
|-9----9-7-9-x-9-(9)----9-7-9-7-|
|-7----7-7-7-x-7-(7)----7-7-7-7-|


    ~~~~~~~~~~~~~~~~~~~~~~~~~~~~
|------------------------------|
|-(10)-----------(10)r---------|
|------------------------------|
|------------------------------|
|------------------------------|
|------------------------------|
|
|   PM--------------------------
|---7--7-7-7---7--(7)--7-7-7-7-|
|---7--7-7-7---7--(7)--7-7-7-7-|
|---8--8-8-8---8--(8)--8-8-8-8-|
|---9--9-7-9---9--(9)--9-7-9-7-|
|---9--9-7-9-x-9--(9)--9-7-9-7-|
|---7--7-7-7-x-7--(7)--7-7-7-7-|


 ~~~~~~~~~~~~~~~~~~~~~~~~~~~~~~~~~~~~~~~
|-------------------------------|------------------------*|
|-10b12============(10)---------|-(10)r------------------*|
|-------------------------------|------------------------*|
|-------------------------------|------------------------*|
|-------------------------------|------------------------*|
|-------------------------------|------------------------*|
|
|-------------------------------------------------|
|--7-----7-7-7---7--(7)-7-7-7-7-|---7---7-7-7---7-(7)\---*|
|--7-----7-7-7---7--(7)-7-7-7-7-|---7---7-7-7---7-(7)\---*|
|--8-----8-8-8---8--(8)-8-8-8-8-|---8---8-8-8---8-(8)\---*|
|--9-----9-7-9---9--(9)-9-7-9-7-|---9---9-7-9---9-(9)\---*|
|--9-----9-7-9-x-9--(9)-9-7-9-7-|---9---9-7-9-x-9-(9)\---*|
|--7-----7-7-7-x-7--(7)-7-7-7-7-|---7---7-7-7-x-7-(7)\---*|


Tablature Legend
----------------
 h   - hammer-on
 p   - pull-off
 b   - bend
 pb  - pre-bend
 r   - bend release (if no number after the r, then release immediately)
 /\  - slide into or out of (from/to "nowhere")
 s   - legato slide
 S   - shift slide
  - natural harmonic
[n]  - artificial harmonic
n(n) - tapped harmonic
 ~   - vibrato
 tr  - trill
 T   - tap
 TP  - trem. picking
 PM  - palm muting
\n/  - tremolo bar dip; n = amount to dip
 \n  - tremolo bar down
 n/  - tremolo bar up
/n\  - tremolo bar inverted dip
 =   - hold bend; also acts as connecting device for hammers/pulls
 <>  - volume swell (louder/softer)
 x   - on rhythm slash represents muted slash
 o   - on rhythm slash represents single note slash

Misc Legend
-----------
 |  - bar
||  - double bar
||o - repeat start
o|| - repeat end
*|  - double bar (ending)
 :  - bar (freetime)
 $  - Segno
 &  - Coda
Tempo markers -  = BPM(8/16=s8/s16), where s8 = swing 8ths, s16 = swing 16ths


***************************************************************************************
***************************************************************************************





Comments


Popular Temple Of The Dog tabs & chords
Four Walled World Bass Tabs
Hunger Strike Bass Tabs
Times Of Trouble Chords
Angel On Fire Tabs
Four Walled World 1 Tabs
Pushin' Forward Back Tabs
Times Of Trouble 1 Tabs
Wooden Jesus Tabs
Your Saviour Tabs
All Night Thing Ukulele


Song lyrics



↑ Back to top | Tablatures and chords are parodies/interpretations of the original songs. You may use it for private study, scholarship, research or language learning purposes only
© 2014 AZChords.com Contact us | Privacy policy | DMCA | Add/correct tabs | Request tabs | Top 50 tabs