» » »

Imaginary Friend Tabs (ver.1)

Artists:  A B C D E F G H I J K L M N O P Q R S T U V W X Y Z # 

Imaginary Friend Tabs (ver.1)

Telekinesis
Rating:
0/5 (0 votes)

Hard to play? Try these video lessons and learn fast.
                #------------------------------------------------------------------------------


Intro/verse Chords (acoustic strummed power chords):
                                                     (Repeat x4)
E-----------------|-----------------|-----------------|-----------------|
B-----------------|-----------------|-----------------|-----------------|
G-----------------|-----------------|-----------------|-----------------|
D-----------------|-----------------|-----------------|-----------------|
A-9-9-9-9-4-4-4---|-7-7-7\14-14-14--|-9-9-9-9-4-4-4---|-7-7-7-7-7-7-7-7-|
E-7-7-7-0-2-2-2---|-5-5-5\12-12-12--|-7-7-7-0-2-2-2---|-5-5-5-5-5-5-5-5-|

Intro Riff (reverb electric over intro chords at 3rd repeat):

E-----------------|------------------|-----------------|-----------------|
B-----------------|------------------|-----------------|-----------------|
G-----------------|------------------|-----------------|-----------------|
D-9-9-7-7---------|-11-11-9-9-7-7-9-9|-9-9-7-7---------|-7-7-7-7-7-7-7---|
A---------9-9-9-9-|------------------|---------9-9-9-9-|-----------------|
E-----------------|------------------|-----------------|-----------------|

Verse (continue acoustic strummed power chords):

B5         F#5         A5        E5
When I was young I had imaginary friends
    B5      F#5     A5
And boy did we have fun
B5         F#5            A5             E5
One day my mother told me they were just pretend
    B5     F#5    A5
And then I had no one
B5       F#5            A5            E5
Building castles out of dirty, smelly sand
    B5     F#5    A5
And baking in the sun
B5       F#5          A5       E5
Hear the sound of the popsicle man
         B5                 F#5       A5
And we’d run run, run, run, run, run, run

Pre-chorus (power chords):

E5
And my life is like a movie
B5
Everyone is going slow
E5
There’s a crazy cast of characters
B5
None of which are real at all
A5                       E
And I cannot feel you anymore
E
No, no, no, no, no-oh (pause)

*(Repeat Intro Riff  over intro chords x2):

Verse 2 (bass only):

B5         F#5         A5              E5
In the summer we would spend the night outside
        B5            F#5    A5
In the comfort of our own backyards
B5         F#5         A5               E5
Then we got older and went our separate ways
    B5   F#5       A5
And everything got haaaard

Chorus (just acoustic strummed):
B5      C#m5    E5
Look at me, I’m getting older,
B5      C#m5 A5
Look at me I know
B5      C#m5    E5
Look at me, I’m getting older,
B5      C#m5 A5
Look at me I know

Solo/outro (reverb electric):
                                     (x3)
E-----------------------|--------------------|-----------------|--------------|
B-7-7-7-9-7-------------|--------------------|-7-7-7-7-5-5-5-5-|-4^(hold)-----|
G----------6-6-6-6-8-6h0|-4-4-4-4\8-8-8-8-8-8|-----------------|--------------|
D-----------------------|--------------------|-----------------|--------------|
A-----------------------|--------------------|-----------------|--------------|
E-----------------------|--------------------|-----------------|--------------|
  Bm              D       A      E            Bm      D         A

-Cheers, and Buy “Telekinesis!” (John Baer)
            
Hard to play? Try these video lessons and learn fast. | Correct




comments powered by Disqus
↑ Back to top | Tablatures and chords are parodies/interpretations of the original songs. You may use it for private study, scholarship, research or language learning purposes only