» » »

Nineteen Lead Tabs (ver.1)

Artists:  A B C D E F G H I J K L M N O P Q R S T U V W X Y Z # 

Nineteen Lead Tabs (ver.1)

Tegan And Sara
Rating:
0/5 (0 votes)

Tabs too difficult? Try these video lessons and learn fast.
                Capo on 4th fret. Tab relative to capo.


After 1st verse:
e-----------------------------------------|
B-----------------------------------------|
G-----------------------------------------|
D-9-9-9-10-10-10-12-12-10-10-10-9-9-9-7-7-|    (x2)
A-----------------------------------------|
E-----------------------------------------|

e---------------------------------------------------------------------------|
B---------------------------------------------------------------------------|
G---------------------------------------------------------------------------|
D-7-7-7-5-5-5-4-4-2-2-2-0-0-0-----------------------------------------9-9-9-|
A --------------------------------------5-5-5-5-5-5-5-5-5-5-9-9-10-10-------|
E ----------------------------2-2-3-3-3-------------------------------------|


After 2nd verse and bridge:
e-----------------------------------------|
B-----------------------------------------|
G-----------------------------------------|
D-9-9-9-10-10-10-12-12-10-10-10-9-9-9-7-7-|    (x2)
A-----------------------------------------|
E-----------------------------------------|

e---------------------------------------------------------------------|
B---------------------------------------------------------------------|
G---------------------------------------------------------------------|
D-7-7-7-5-5-5-4-4-2-2-2-0-0-0-----------------------------------------|
A---------------------------------------5-5-5-5-5-5-5-5-5-5-9-9-10-10-|
E-----------------------------2-2-3-3-3-------------------------------|

e-----------------------------------------|
B-----------------------------------------|
G-----------------------------------------|
D-9-9-9-10-10-10-12-12-10-10-10-9-9-9-7-7-|    (x2)
A-----------------------------------------|
E-----------------------------------------|

e-------------------------------------------------------------------|
B-------------------------------------------------------------------|
G-------------------------------------------------------------------|
D-7-7-7-5-5-5-4-4-2-2-2-0-0-0---------------------------------------|
A --------------------------------------5-5-5-5-5-5-5-5-5-5-9-9-9-9-|
E ----------------------------2-2-3-3-3-----------------------------|

e----------------------------|
B----------------------------|
G----------------------------|
D----------------------------|
A-10-10-10-10-10-10-10-10-10-|
E----------------------------|
            
Tabs too difficult? Try these video lessons and learn fast.




comments powered by Disqus
↑ Back to top | Tablatures and chords are parodies/interpretations of the original songs. You may use it for private study, scholarship, research or language learning purposes only