>
 >
Sorry

Sorry Guitar Tabs

Teeth - Sorry chords, tabs, tablatures, lyrics

Guitar lessons | Add/correct | Request | Top 50 tabs Artists:  A B C D E F G H I J K L M N O P Q R S T U V W X Y Z 0-9

Sorry Guitar Tabs – Teeth

CD, Sheet music, Poster

Do you like Sorry? Share with your friends now
Tabs
                         "SORRY" BY TEETH
    
      NOTE: FOR THOSE WHO EMAIL ME AND REQUESTING FOR TABS>>>
                 "PUTANG INA SALAMAT SA TIWALA NYO"

   SA TOTOO LNG, I HATE THIS SONG,,MEDYO BADUY KC,, MARAMI LNG 
   KC NGREQUEST NTONG SONG N TO,KYA I DECIDED N GAWAN NA RIN..              
          
                   PLEASE CHECK THIS OUT\\\ 
  intro: X2
e|---------------------------------------------------------------|
B|---------------------------------------------------------------|
G|---------------------------------------------------------------|
D|-11-11--9-9-9-9--11-11--9-9-9-9--7-7-7-9-9-9-9--7-7-7-9-9-9-9--|
A|-0--0---0-0-0-0--0--0---0-0-0-0--7-7-7-9-9-9-9--7-7-7-9-9-9-9--|
E|---------------------------------5-5-5-7-7-7-7--5-5-5-7-7-7-7--|

 Akala ko bagay tyo…
e|-------------------0-----0-----------------|
B|-----0----0------0-----0----------0-----0--|
G|-------------------------------------------|
D|--11---9-----11------9-----11--11---9-9----|
A|--0----0-----0-------0-----0---0----0-0----|
E|-------------------------------------------|

  Di na dapat umasa pa…(repeat)
e|-------------------------------------|
B|-------------------------------------|
G|-9--------------6-------4------------|
D|-9(X8)--9-------6(X8)---4(X8)--------|
A|-7------9(X8)---4-------2------------|
E|--------7----------------------------|

 Bakit ba sila ganyan… (repeat)
e|-------------------------------------|
B|-------------------------------------|
G|--7-------6-------4------------------|
D|--7(X6)---6(X6)---4(X8)--------------|
A|--5-------4-------2------------------|
E|-------------------------------------|

Outro:  sorry…
e|-------------------------------------|
B|-------------------------------------|
G|-------------------------------------|
D|--11-11--9-9-9-9--11-11-9-9-9-9------|
A|--0--0---0-0-0-0--0--0--0-0-0-0------|
E|-------------------------------------|
        <<<>>>





Comments


Popular Teeth tabs & chords
Shooting Star Chords
Galit Sa Mundo Tabs
Gubat Tabs
Prinsesa Tabs
Prinsesa 1 Tabs
Talambuhay Ng Isang Tinapa Tabs
Laklak Ukulele
Prinsesa Ukulele
Shooting Star Ukulele
Tampo Ukulele


Song lyrics



↑ Back to top | Tablatures and chords are parodies/interpretations of the original songs. You may use it for private study, scholarship, research or language learning purposes only
© 2014 AZChords.com Contact us | Privacy policy | DMCA | Add/correct tabs | Request tabs | Top 50 tabs