>
 >
Me

Me Guitar Tabs

Teeth - Me chords, tabs, tablatures, lyrics

Guitar lessons | Add/correct | Request | Top 50 tabs Artists:  A B C D E F G H I J K L M N O P Q R S T U V W X Y Z 0-9

Me Guitar Tabs – Teeth

CD, Sheet music, Poster

Do you like Me? Share with your friends now
Tabs
                             "ME" BY TEETH
  
        NOTE: FOR THOSE WHO EMAIL ME AND REQUESTING FOR TABS
              "PUTANG INA SALAMAT SA TIWALA NYO"   

  intro:
e|-----5---5-5------------------------------------|
B|-----5---5-5-----7---7-7-----3---3-3-----5---5--|
G|-7-7-5-7-5-5-----7---7-7-----3---3-3-----5---5--|
D|-7-7-5-7-5-5-9-9-7-9-7-7-5-5-3-5-3-3-7-7-5-7-5--|
A|-5-5-5-5-5-5-9-9-7-9-7-7-5-5-3-5-3-3-7-7-5-7-5--|
E|-------------7-7---7-----3-3---3-----5-5---5----|

e|------------------------------------------------------|
B|-----7---7-7-----5---5-5------------------------------|
G|-----7---7-7-----5---5-5----3-3-3-3-3-3-3-3-3-3-3-3-3-|
D|-9-9-7-9-7-7-7-7-5-7-5-5----3-3-3-3-3-3-3-3-3-3-3-3-3-|
A|-9-9-7-9-7-7-7-7-5-7-5-5----1-1-1-1-1-1-1-1-1-1-1-1-1-|
E|-7-7---7-----5-5---5----------------------------------|

 handsome man drinks a mug of beer... X2
e|---------------------------------------|
B|---------------------------------------|
G|-7-------------------------------------|
D|-7(X8)--9--------5-------7-------------|
A|-5------9(X10)---5(X10)--7(X10)--------|
E|--------7--------3-------5-------------|

 head down on hot concrete...
e|-----------------------------------|
B|-----------------------------------|
G|--9--------------------------------|
D|--9(X8)--11-------7------9---------|
A|--7------11(X16)--7(X8)--9(X8)-----|
E|---------9--------5------7---------|

e|--------------------------  ----------------------------|
B|--------------------------  ----------------------------|
G|--9-----------------------  -9--------------------------|
D|--9(X8)--11-------7-------  -9(X8)--11-----7-----9------|
A|--7------11(X16)--7(break)  -7------11(X8)-7(X8)-9(X8)--|
E|---------9--------5-------  --------9------5-----7------|

 solo:
e|----------------------------------------------------------|
B|----13-13-13-13h15-13----11-11-11-11h12-11-11/14-12-15----|
G|-12-------------------12----------------------------------|
D|----------------------------------------------------------|
A|----------------------------------------------------------|
E|----------------------------------------------------------|

e|------------------------------------------------------------------|
B|-12/15-15-15h16-15----10/12-12-12h13-12------12/15-15-15h16-15----|
G|------------------------------------------------------------------|
D|------------------------------------------------------------------|
A|------------------------------------------------------------------|
E|------------------------------------------------------------------|

e|---------------------------|
B|--12/19-19-19h20-19--------|
G|---------------------------|
D|---------------------------|
A|---------------------------|
E|---------------------------|

e|----------------------------------------------------------|
B|----13-13-13-13h15-13----11-11-11-11h12-11-11/14-12-15----|
G|-12-------------------12----------------------------------|
D|----------------------------------------------------------|
A|----------------------------------------------------------|
E|----------------------------------------------------------|

e|------------------------------------------------------------------|
B|-12/15-15-15h16-15----10/12-12-12h13-12------12/15-15-15h16-15----|
G|------------------------------------------------------------------|
D|------------------------------------------------------------------|
A|------------------------------------------------------------------|
E|------------------------------------------------------------------|

e|---------------------------|
B|--12/19-19-19h20-19--------|
G|---------------------------|
D|---------------------------|
A|---------------------------|
E|---------------------------|

e|----------------------------------------------------------|
B|----13-13-13-13h15-13----11-11-11-11h12-11-11/14-12-15----|
G|-12-------------------12----------------------------------|
D|----------------------------------------------------------|
A|----------------------------------------------------------|
E|----------------------------------------------------------|

e|------------------------------------------------------------------|
B|-12/15-15-15h16-15----10/12-12-12h13-12------12/15-15-15h16-15----|
G|------------------------------------------------------------------|
D|------------------------------------------------------------------|
A|------------------------------------------------------------------|
E|------------------------------------------------------------------|

e|---------------------------|
B|--12/19-19-19h20-19--------|
G|---------------------------|
D|---------------------------|
A|---------------------------|
E|---------------------------|
  
 solo outro: (do this as many times)
e|-------------------------------------------------------------|
B|-------------------------------------------------------------|
G|-------12-----------15-16-15--------12----------15-16-15-----|
D|-10/12----12--12/15-----------10/12----12-12/15--------------|
A|-------------------------------------------------------------|
E|-------------------------------------------------------------|

e|-----------------------------------|
B|-------15----12-13-12-14-12--------|
G|-12/15----15-----------------------|
D|-----------------------------------|
A|-----------------------------------|
E|-----------------------------------|





Comments


Popular Teeth tabs & chords
Laklak Bass Tabs
Prinsesa 1 Bass Tabs
Prinsesa 2 Bass Tabs
Prinsesa Chords
Gubat Tabs
Prinsesa Tabs
Prinsesa 1 Tabs
Prinsesa 2 Tabs
Prinsesa 6 Tabs
Shooting Stars Ukulele


Song lyrics



↑ Back to top | Tablatures and chords are parodies/interpretations of the original songs. You may use it for private study, scholarship, research or language learning purposes only
© 2014 AZChords.com Contact us | Privacy policy | DMCA | Add/correct tabs | Request tabs | Top 50 tabs