» » »

Teeth, A Fight In The Dark Tabs (ver.1)

Artists:  A B C D E F G H I J K L M N O P Q R S T U V W X Y Z # 

A Fight In The Dark Tabs (ver.1)

Teeth Tabs
 Rating:
4/5 (4 votes)
A Fight In The Dark lessons Tabs too difficult? Try these video lessons and learn fast
                (Intro)
(/) Slide Up  (\) Slide Down  (h) Hammer On  (p) Pull Off  (b) Bend (r) Release (v) Vibrato

E|--------------------------------------------------------------------------|
B|--------------------------------------------------------------------------|
G|-----------2-----------------2-----------------2-----------------2--------|
D|--------4-----4-----------4-----4-----------5-----5-----------5-----5-----|
A|-----4-----------4-----4-----------4-----4-----------4-----4-----------4--|
E|--2-----------------2-----------------3-----------------3-----------------|

E|--------------------------------------------------------------------------|
B|-----------7-----------------7-----------------6-----------------6--------|
G|--------7-----7-----------7-----7-----------4-----4-----------4-----4-----|
D|-----7-----------7-----7-----------7-----6-----------6-----6-----------6--|
A|--5-----------------5-----------------4-----------------4-----------------|
E|--------------------------------------------------------------------------|

E|-----------------------------------------------------------------------------|
B|-----------3-----------------3-----------------2-----------------2-----------|
G|--------4-----4-----------4-----4-----------1-----1-----------1-----1--------|
D|-----4-----------4-----4-----------4-----2-----------2-----2-----------2-----|
A|--2-----------------2-----------------2-----------------2--------------------|
E|-----------------------------------------------------------------------------|

E|--------------------------------------------------------------------------|
B|--------------------------------------------------------------------------|
G|-----------6-----------------6-----------------4-----------------4--------|
D|--------7-----7-----------7-----7-----------6-----6-----------6-----6-----|
A|-----7-----------7-----7-----------7-----8-----------8-----8-----------8--|
E|--5-----------------5-----------------4-----------------4-----------------|
            
Submit corrections

comments powered by Disqus
↑ Back to top | Teeth Tabs for A Fight In The Dark. Lyrics for acoustic guitar and electric guitar. Tablatures and chords are parodies/interpretations of the original songs. You may use it for private study, scholarship, research or language learning purposes only