» » »

When I Hear Your Name Tabs (ver.1)

Artists:  A B C D E F G H I J K L M N O P Q R S T U V W X Y Z # 

When I Hear Your Name Tabs (ver.1)

Teen Idols
Rating:
0/5 (0 votes)

Hard to play? Try these video lessons and learn fast.
                
Verse: (Someone spoke your name again...)
e|----------------------------
B|----------------------------
G|-------------7--------------
D|---7----5----7----7---------
A|---7----5----5----7---------
E|---5----3---------5---------

Pre-Chorus: (I try so hard...)
e|----------------------------
B|----------------------------
G|--------6----7----9---------
D|---4----6----7----9---------
A|---4----4----5----7---------
E|---2------------------------

Chorus: (It brings me back...)
e|-------------------------------
B|-------------------------------
G|-------6-------7-------9-------
D|---7---6---4---7---7---7---7---
A|---7---4---4---5---7---7---7---
E|---5-------2-------5-------5---

(I sometimes wonder...)
e|-------------------------------
B|-------------------------------
G|-------6-------7-------7-------
D|---7---6---4---7---7---7---7---
A|---7---4---4---5---7---5---7---
E|---5-------2-------5-------5---

SOLO:
e|---------------------------------------------------------------|
B|----------------------14-17-15-14-h15-p14----------14----14----|
G|--14-16-14-13----13-14--------------------14-14-16----14-------|
D|--------------16-----------------------------------------------|
A|---------------------------------------------------------------|
E|---------------------------------------------------------------|

e|---------------------------------------------------------------|
B|-----17-15-14-h15-p14-17-15-14-h15-p14-17-15-14-h15-p14--------|
G|--14----------------------------------------------------14-----|
D|---------------------------------------------------------------|
A|---------------------------------------------------------------|
E|---------------------------------------------------------------|

e|---------------------------------------------------------------|
B|--------------14-----------------------------------------------|
G|-----13-14-16----16-14-13-14-----------------------------------|
D|--16-----------------------------------------------------------|
A|---------------------------------------------------------------|
E|---------------------------------------------------------------|
            
Hard to play? Try these video lessons and learn fast. | Correct




comments powered by Disqus
↑ Back to top | Tablatures and chords are parodies/interpretations of the original songs. You may use it for private study, scholarship, research or language learning purposes only