» » »

Teen Idols, When You Say Nothing At All Bass tabs (ver.1)

Artists:  A B C D E F G H I J K L M N O P Q R S T U V W X Y Z # 

When You Say Nothing At All Bass tabs (ver.1)

Teen Idols Tabs
 Rating:
4/5 (4 votes)
When You Say Nothing At All lessons Tabs too difficult? Try these video lessons and learn fast
                WHEN YOU SAY NOTHING AT ALL by Teen Idols. Album : Nothing To Prove
:
# chorus-1 # 
G-------(x2)-------|----------------------------------------|
D----*--*------*---|----*--*---------*--*------*------------|
A---5--0---*--0----|---5--0---*--*--0--0---*--4----*--*-----|
E---------3--------|---------3--3---------7-------3--3--5---|
:
# verse-1 #
G-------(x6)-------|-------------------------------------------------------|
D----*--*------*---|--------------------------4------*--*------*--*--*--*--|
A---5--0---*--0----|---------2h3-5--------5h7---7---5--0---*--0--0--0--0---|
E---------3--------|--3---/5----------5-------------------3----------------|
:
# chorus-2 # 
G-------(x2)-------|---------------------------------------------|
D----*--*------*---|----*--*---------*--*------*----------*--*---|
A---5--0---*--0----|---5--0---*--*--0--0---*--4----*--*--0--0----|
E---------3--------|---------3--3---------7-------3--3-----------|
:
# during-solo #
G-------(x2)-------|---------------------------------------|
D----*--*------*---|----*--*---------*--*-----9--7---------|
A---5--0---*--0----|---5--0---*--*--0--0---*--------9--7---|
E---------3--------|---------3--3---------3----------------|
:
# verse-3 #                           (repeat to fade)
G------------------------------------|-----------------|
D----*--*------*---------------------|----*--*---------|
A---5--0---*--0---5--4--2------------|---5--0---*--*---|
E---------3----------------5-----3---|---------3--3----|
:
            
Submit corrections

comments powered by Disqus
↑ Back to top | Teen Idols Bass for When You Say Nothing At All. Lyrics for acoustic guitar and electric guitar. Tablatures and chords are parodies/interpretations of the original songs. You may use it for private study, scholarship, research or language learning purposes only